  0
SECTION
  2
HEADER
  9
$ACADVER
  1
AC1009
  9
$DWGCODEPAGE
  3
ansi_1250
  9
$INSBASE
 10
0.0
 20
0.0
 30
0.0
  9
$EXTMIN
 10
-32.161731
 20
-20.525865
 30
0.0
  9
$EXTMAX
 10
8.075693
 20
17.685865
 30
0.0
  9
$LIMMIN
 10
0.0
 20
0.0
  9
$LIMMAX
 10
0.0
 20
0.0
  9
$ORTHOMODE
 70
     0
  9
$REGENMODE
 70
     1
  9
$FILLMODE
 70
     1
  9
$QTEXTMODE
 70
     0
  9
$MIRRTEXT
 70
     1
  9
$DRAGMODE
 70
     2
  9
$LTSCALE
 40
1.0
  9
$OSMODE
 70
     0
  9
$ATTMODE
 70
     1
  9
$TEXTSIZE
 40
0.2
  9
$TRACEWID
 40
0.05
  9
$TEXTSTYLE
  7
STANDARD
  9
$CLAYER
  8
0
  9
$CELTYPE
  6
CONTINUOUS
  9
$CECOLOR
 62
   256
  9
$DIMSCALE
 40
1.0
  9
$DIMASZ
 40
0.18
  9
$DIMEXO
 40
0.0625
  9
$DIMDLI
 40
0.38
  9
$DIMRND
 40
0.0
  9
$DIMDLE
 40
0.0
  9
$DIMEXE
 40
0.18
  9
$DIMTP
 40
0.0
  9
$DIMTM
 40
0.0
  9
$DIMTXT
 40
0.18
  9
$DIMCEN
 40
0.09
  9
$DIMTSZ
 40
0.0
  9
$DIMTOL
 70
     0
  9
$DIMLIM
 70
     0
  9
$DIMTIH
 70
     1
  9
$DIMTOH
 70
     1
  9
$DIMSE1
 70
     0
  9
$DIMSE2
 70
     0
  9
$DIMTAD
 70
     0
  9
$DIMZIN
 70
     0
  9
$DIMBLK
  1

  9
$DIMASO
 70
     1
  9
$DIMSHO
 70
     1
  9
$DIMPOST
  1

  9
$DIMAPOST
  1

  9
$DIMALT
 70
     0
  9
$DIMALTD
 70
     2
  9
$DIMALTF
 40
25.4
  9
$DIMLFAC
 40
1.0
  9
$DIMTOFL
 70
     0
  9
$DIMTVP
 40
0.0
  9
$DIMTIX
 70
     0
  9
$DIMSOXD
 70
     0
  9
$DIMSAH
 70
     0
  9
$DIMBLK1
  1

  9
$DIMBLK2
  1

  9
$DIMSTYLE
  2
STANDARD
  9
$DIMCLRD
 70
     0
  9
$DIMCLRE
 70
     0
  9
$DIMCLRT
 70
     0
  9
$DIMTFAC
 40
1.0
  9
$DIMGAP
 40
0.09
  9
$LUNITS
 70
     2
  9
$LUPREC
 70
     4
  9
$AXISMODE
 70
     0
  9
$AXISUNIT
 10
0.0
 20
0.0
  9
$SKETCHINC
 40
0.1
  9
$FILLETRAD
 40
0.0
  9
$AUNITS
 70
     0
  9
$AUPREC
 70
     0
  9
$MENU
  1
acad
  9
$ELEVATION
 40
0.0
  9
$PELEVATION
 40
0.0
  9
$THICKNESS
 40
0.0
  9
$LIMCHECK
 70
     0
  9
$BLIPMODE
 70
     1
  9
$CHAMFERA
 40
0.0
  9
$CHAMFERB
 40
0.0
  9
$SKPOLY
 70
     0
  9
$TDCREATE
 40
0.000000000
  9
$TDUPDATE
 40
0.000000000
  9
$TDINDWG
 40
0.0000000000
  9
$TDUSRTIMER
 40
0.0000000000
  9
$USRTIMER
 70
     1
  9
$ANGBASE
 50
0.0
  9
$ANGDIR
 70
     0
  9
$PDMODE
 70
     0
  9
$PDSIZE
 40
0.0
  9
$PLINEWID
 40
0.0
  9
$COORDS
 70
     0
  9
$SPLFRAME
 70
     0
  9
$SPLINETYPE
 70
     6
  9
$SPLINESEGS
 70
     8
  9
$ATTDIA
 70
     0
  9
$ATTREQ
 70
     1
  9
$HANDLING
 70
     1
  9
$HANDSEED
  5
26D
  9
$SURFTAB1
 70
     6
  9
$SURFTAB2
 70
     6
  9
$SURFTYPE
 70
     6
  9
$SURFU
 70
     6
  9
$SURFV
 70
     6
  9
$UCSNAME
  2

  9
$UCSORG
 10
0.0
 20
0.0
 30
0.0
  9
$UCSXDIR
 10
1.0
 20
0.0
 30
0.0
  9
$UCSYDIR
 10
0.0
 20
1.0
 30
0.0
  9
$PUCSNAME
  2

  9
$PUCSORG
 10
0.0
 20
0.0
 30
0.0
  9
$PUCSXDIR
 10
1.0
 20
0.0
 30
0.0
  9
$PUCSYDIR
 10
0.0
 20
1.0
 30
0.0
  9
$USERI1
 70
     0
  9
$USERI2
 70
     0
  9
$USERI3
 70
     0
  9
$USERI4
 70
     0
  9
$USERI5
 70
     0
  9
$USERR1
 40
0.0
  9
$USERR2
 40
0.0
  9
$USERR3
 40
0.0
  9
$USERR4
 40
0.0
  9
$USERR5
 40
0.0
  9
$WORLDVIEW
 70
     1
  9
$SHADEDGE
 70
     3
  9
$SHADEDIF
 70
    70
  9
$TILEMODE
 70
     1
  9
$MAXACTVP
 70
    16
  9
$PINSBASE
 10
0.0
 20
0.0
 30
0.0
  9
$PLIMCHECK
 70
     0
  9
$PEXTMIN
 10
1.000000E+20
 20
1.000000E+20
 30
1.000000E+20
  9
$PEXTMAX
 10
-1.000000E+20
 20
-1.000000E+20
 30
-1.000000E+20
  9
$PLIMMIN
 10
0.0
 20
0.0
  9
$PLIMMAX
 10
12.0
 20
9.0
  9
$UNITMODE
 70
     0
  9
$VISRETAIN
 70
     0
  9
$PLINEGEN
 70
     1
  9
$PSLTSCALE
 70
     0
  9
$TREEDEPTH
 70
  3020
  0
ENDSEC
  0
SECTION
  2
TABLES
  0
TABLE
  2
VPORT
 70
     1
  0
VPORT
  2
*ACTIVE
 70
     0
 10
0.0
 20
0.0
 11
1.0
 21
1.0
 12
6.591288
 22
4.579184
 13
0.0
 23
0.0
 14
1.0
 24
1.0
 15
0.0
 25
0.0
 16
0.0
 26
0.0
 36
1.0
 17
0.0
 27
0.0
 37
0.0
 40
9.158369
 41
0.688564
 42
50.0
 43
0.0
 44
0.0
 50
0.0
 51
0.0
 71
     0
 72
   100
 73
     1
 74
     1
 75
     0
 76
     0
 77
     0
 78
     0
  0
ENDTAB
  0
TABLE
  2
LTYPE
 70
     5
  0
LTYPE
  2
CONTINUOUS
 70
    64
  3
Solid line
 72
    65
 73
     0
 40
0.0
  0
LTYPE
  2
CENTER
 70
    64
  3
Center ____ _ ____ _ ____ _ ____ _ ____ _ ____
 72
    65
 73
     4
 40
50.8
 49
31.75
 49
-6.35
 49
6.35
 49
-6.35
  0
LTYPE
  2
HIDDEN
 70
    64
  3
Hidden __ __ __ __ __ __ __ __ __ __ __ __ __ __
 72
    65
 73
     2
 40
9.525
 49
6.35
 49
-3.175
  0
LTYPE
  2
CENTER2
 70
    64
  3
Center (.5x) ___ _ ___ _ ___ _ ___ _ ___ _ ___
 72
    65
 73
     4
 40
28.575
 49
19.05
 49
-3.175
 49
3.175
 49
-3.175
  0
LTYPE
  2
HIDDEN2
 70
    64
  3
Hidden (.5x) _ _ _ _ _ _ _ _ _ _ _ _ _ _ _ _ _
 72
    65
 73
     2
 40
4.7625
 49
3.175
 49
-1.5875
  0
ENDTAB
  0
TABLE
  2
LAYER
 70
     1
  0
LAYER
  2
0
 70
     0
 62
     7
  6
CONTINUOUS
  0
ENDTAB
  0
TABLE
  2
STYLE
 70
     1
  0
STYLE
  2
STANDARD
 70
     0
 40
0.0
 41
1.0
 50
0.0
 71
     0
 42
0.0
  3
txt
  4

  0
ENDTAB
  0
TABLE
  2
VIEW
 70
     0
  0
ENDTAB
  0
TABLE
  2
UCS
 70
     0
  0
ENDTAB
  0
TABLE
  2
APPID
 70
     1
  0
APPID
  2
ACAD
 70
     0
  0
ENDTAB
  0
TABLE
  2
DIMSTYLE
 70
     1
  0
DIMSTYLE
  2
STANDARD
 70
     0
  3

  4

  5

  6

  7

 40
1.0
 41
0.18
 42
0.0625
 43
0.38
 44
0.18
 45
0.0
 46
0.0
 47
0.0
 48
0.0
 71
     0
 72
     0
 73
     1
 74
     1
 75
     0
 76
     0
 77
     0
 78
     0
140
0.18
141
0.09
142
0.0
143
25.4
144
1.0
145
0.0
146
1.0
147
0.09
170
     0
171
     2
172
     0
173
     0
174
     0
175
     0
176
     0
177
     0
178
     0
  0
ENDTAB
  0
ENDSEC
  0
SECTION
  2
BLOCKS
  0
ENDSEC
  0
SECTION
  2
ENTITIES
  0
LINE
  8
0
  6
CONTINUOUS
 62
     7
  5
16C
 10
0.0
 20
-4.395
 30
0.0
 11
0.0
 21
-6.43
 31
0.0
  0
LINE
  8
0
  6
CONTINUOUS
 62
     7
  5
16D
 10
1.968504
 20
-6.43
 30
0.0
 11
0.0
 21
-6.43
 31
0.0
  0
LINE
  8
0
  6
CONTINUOUS
 62
     7
  5
16E
 10
1.968504
 20
-6.43
 30
0.0
 11
2.165354
 21
-6.23315
 31
0.0
  0
LINE
  8
0
  6
CONTINUOUS
 62
     7
  5
16F
 10
2.165354
 20
-6.23315
 30
0.0
 11
4.1031
 21
-6.23315
 31
0.0
  0
LINE
  8
0
  6
CONTINUOUS
 62
     7
  5
170
 10
4.1031
 20
-4.395
 30
0.0
 11
4.1031
 21
-6.23315
 31
0.0
  0
LINE
  8
0
  6
CONTINUOUS
 62
     7
  5
171
 10
0.137795
 20
-6.843543
 30
0.0
 11
0.137795
 21
-6.43
 31
0.0
  0
LINE
  8
0
  6
CONTINUOUS
 62
     7
  5
172
 10
0.137795
 20
-6.843543
 30
0.0
 11
0.137795
 21
-6.922283
 31
0.0
  0
LINE
  8
0
  6
CONTINUOUS
 62
     7
  5
173
 10
0.137795
 20
-6.922283
 30
0.0
 11
0.137795
 21
-7.591575
 31
0.0
  0
LINE
  8
0
  6
CONTINUOUS
 62
     7
  5
174
 10
0.03937
 20
-7.565202
 30
0.0
 11
0.03937
 21
-6.922283
 31
0.0
  0
LINE
  8
0
  6
CONTINUOUS
 62
     7
  5
175
 10
0.03937
 20
-6.922283
 30
0.0
 11
0.03937
 21
-6.843543
 31
0.0
  0
LINE
  8
0
  6
CONTINUOUS
 62
     7
  5
176
 10
-0.184975
 20
-7.95378
 30
0.0
 11
0.03937
 21
-7.565202
 31
0.0
  0
LINE
  8
0
  6
CONTINUOUS
 62
     7
  5
177
 10
0.137795
 20
-7.591575
 30
0.0
 11
-0.099737
 21
-8.002992
 31
0.0
  0
LINE
  8
0
  6
CONTINUOUS
 62
     7
  5
178
 10
-0.099737
 20
-8.002992
 30
0.0
 11
-0.184975
 21
-7.95378
 31
0.0
  0
LINE
  8
0
  6
CONTINUOUS
 62
     7
  5
179
 10
0.137795
 20
-6.922283
 30
0.0
 11
0.03937
 21
-6.922283
 31
0.0
  0
LINE
  8
0
  6
CONTINUOUS
 62
     7
  5
17A
 10
-0.112205
 20
-7.206761
 30
0.0
 11
-0.112205
 21
-7.298268
 31
0.0
  0
LINE
  8
0
  6
CONTINUOUS
 62
     7
  5
17B
 10
-0.112205
 20
-7.298268
 30
0.0
 11
-0.112205
 21
-7.389774
 31
0.0
  0
LINE
  8
0
  6
CONTINUOUS
 62
     7
  5
17C
 10
-0.256717
 20
-5.898661
 30
0.0
 11
-0.374016
 21
-5.898661
 31
0.0
  0
LINE
  8
0
  6
CONTINUOUS
 62
     7
  5
17D
 10
-0.374016
 20
-6.843543
 30
0.0
 11
-0.374016
 21
-5.898661
 31
0.0
  0
LINE
  8
0
  6
CONTINUOUS
 62
     7
  5
17E
 10
0.500795
 20
-7.057268
 30
0.0
 11
0.500795
 21
-7.298268
 31
0.0
  0
LINE
  8
0
  6
CONTINUOUS
 62
     7
  5
17F
 10
0.500795
 20
-7.298268
 30
0.0
 11
0.500795
 21
-7.539268
 31
0.0
  0
LINE
  8
0
  6
CONTINUOUS
 62
     7
  5
180
 10
0.637795
 20
-7.057268
 30
0.0
 11
0.637795
 21
-7.298268
 31
0.0
  0
LINE
  8
0
  6
CONTINUOUS
 62
     7
  5
181
 10
0.637795
 20
-7.298268
 30
0.0
 11
0.637795
 21
-7.539268
 31
0.0
  0
LINE
  8
0
  6
CONTINUOUS
 62
     7
  5
182
 10
-0.112205
 20
-7.206761
 30
0.0
 11
-0.112205
 21
-7.298268
 31
0.0
  0
LINE
  8
0
  6
CONTINUOUS
 62
     7
  5
183
 10
-0.112205
 20
-7.298268
 30
0.0
 11
-0.112205
 21
-7.389774
 31
0.0
  0
LINE
  8
0
  6
CONTINUOUS
 62
     7
  5
184
 10
-0.228346
 20
-6.44
 30
0.0
 11
-0.256717
 21
-5.898661
 31
0.0
  0
LINE
  8
0
  6
CONTINUOUS
 62
     7
  5
185
 10
-0.090551
 20
-6.213622
 30
0.0
 11
-0.090551
 21
-6.44
 31
0.0
  0
LINE
  8
0
  6
CONTINUOUS
 62
     7
  5
186
 10
-0.090551
 20
-6.44
 30
0.0
 11
-0.228346
 21
-6.44
 31
0.0
  0
LINE
  8
0
  6
CONTINUOUS
 62
     7
  5
187
 10
-0.03863
 20
-6.213622
 30
0.0
 11
-0.090551
 21
-6.213622
 31
0.0
  0
LINE
  8
0
  6
CONTINUOUS
 62
     7
  5
188
 10
0.0
 20
-6.213622
 30
0.0
 11
-0.03863
 21
-6.213622
 31
0.0
  0
LINE
  8
0
  6
CONTINUOUS
 62
     7
  5
189
 10
-0.374016
 20
-6.843543
 30
0.0
 11
-0.03863
 21
-6.843543
 31
0.0
  0
LINE
  8
0
  6
CONTINUOUS
 62
     7
  5
18A
 10
-0.03863
 20
-6.843543
 30
0.0
 11
0.137795
 21
-6.843543
 31
0.0
  0
LINE
  8
0
  6
CONTINUOUS
 62
     7
  5
18B
 10
0.012795
 20
-7.173268
 30
0.0
 11
0.012795
 21
-7.298268
 31
0.0
  0
LINE
  8
0
  6
CONTINUOUS
 62
     7
  5
18C
 10
0.012795
 20
-7.298268
 30
0.0
 11
0.012795
 21
-7.423268
 31
0.0
  0
LINE
  8
0
  6
CONTINUOUS
 62
     7
  5
18D
 10
0.500795
 20
-7.057268
 30
0.0
 11
0.500795
 21
-7.298268
 31
0.0
  0
LINE
  8
0
  6
CONTINUOUS
 62
     7
  5
18E
 10
0.500795
 20
-7.298268
 30
0.0
 11
0.500795
 21
-7.539268
 31
0.0
  0
LINE
  8
0
  6
CONTINUOUS
 62
     7
  5
18F
 10
0.637795
 20
-7.057268
 30
0.0
 11
0.637795
 21
-7.298268
 31
0.0
  0
LINE
  8
0
  6
CONTINUOUS
 62
     7
  5
190
 10
0.637795
 20
-7.298268
 30
0.0
 11
0.637795
 21
-7.539268
 31
0.0
  0
LINE
  8
0
  6
CONTINUOUS
 62
     7
  5
191
 10
-0.112205
 20
-7.206761
 30
0.0
 11
-0.112205
 21
-7.298268
 31
0.0
  0
LINE
  8
0
  6
CONTINUOUS
 62
     7
  5
192
 10
-0.112205
 20
-7.298268
 30
0.0
 11
-0.112205
 21
-7.389774
 31
0.0
  0
LINE
  8
0
  6
CONTINUOUS
 62
     7
  5
193
 10
4.1031
 20
-4.395
 30
0.0
 11
0.0
 21
-4.395
 31
0.0
  0
LINE
  8
0
  6
CONTINUOUS
 62
     7
  5
194
 10
2.253675
 20
6.111961
 30
0.0
 11
2.329895
 21
6.008821
 31
0.0
  0
ARC
  8
0
  6
CONTINUOUS
 62
     7
  5
195
 10
2.330479
 20
6.168718
 30
0.0
 40
0.0955
 50
173.005781
 51
216.46391
  0
LINE
  8
0
  6
CONTINUOUS
 62
     7
  5
196
 10
2.291555
 20
6.635708
 30
0.0
 11
2.23569
 21
6.180347
 31
0.0
  0
ARC
  8
0
  6
CONTINUOUS
 62
     7
  5
197
 10
2.10545
 20
6.65854
 30
0.0
 40
0.1875
 50
353.005781
 51
30.0
  0
LINE
  8
0
  6
CONTINUOUS
 62
     7
  5
198
 10
2.219268
 20
6.836402
 30
0.0
 11
2.26783
 21
6.75229
 31
0.0
  0
LINE
  8
0
  6
CONTINUOUS
 62
     7
  5
199
 10
2.139594
 20
6.790402
 30
0.0
 11
2.219268
 21
6.836402
 31
0.0
  0
LINE
  8
0
  6
CONTINUOUS
 62
     7
  5
19A
 10
2.188155
 20
6.70629
 30
0.0
 11
2.139594
 21
6.790402
 31
0.0
  0
ARC
  8
0
  6
CONTINUOUS
 62
     7
  5
19B
 10
2.10545
 20
6.65854
 30
0.0
 40
0.0955
 50
353.005781
 51
30.0
  0
LINE
  8
0
  6
CONTINUOUS
 62
     7
  5
19C
 10
2.156416
 20
6.289704
 30
0.0
 11
2.200239
 21
6.646911
 31
0.0
  0
ARC
  8
0
  6
CONTINUOUS
 62
     7
  5
19D
 10
2.330479
 20
6.168718
 30
0.0
 40
0.1875
 50
212.799715
 51
216.46391
  0
LINE
  8
0
  6
CONTINUOUS
 62
     7
  5
19E
 10
2.207753
 20
6.019303
 30
0.0
 11
2.179686
 21
6.057284
 31
0.0
  0
LINE
  8
0
  6
CONTINUOUS
 62
     7
  5
19F
 10
2.430105
 20
6.008821
 30
0.0
 11
2.506325
 21
6.111961
 31
0.0
  0
LINE
  8
0
  6
CONTINUOUS
 62
     7
  5
1A0
 10
2.580314
 20
6.057284
 30
0.0
 11
2.554008
 21
6.021686
 31
0.0
  0
ARC
  8
0
  6
CONTINUOUS
 62
     7
  5
1A1
 10
2.429521
 20
6.168718
 30
0.0
 40
0.1875
 50
323.53609
 51
325.376685
  0
LINE
  8
0
  6
CONTINUOUS
 62
     7
  5
1A2
 10
2.559761
 20
6.646911
 30
0.0
 11
2.60231
 21
6.300087
 31
0.0
  0
ARC
  8
0
  6
CONTINUOUS
 62
     7
  5
1A3
 10
2.65455
 20
6.65854
 30
0.0
 40
0.0955
 50
150.0
 51
186.994219
  0
LINE
  8
0
  6
CONTINUOUS
 62
     7
  5
1A4
 10
2.620406
 20
6.790402
 30
0.0
 11
2.571845
 21
6.70629
 31
0.0
  0
LINE
  8
0
  6
CONTINUOUS
 62
     7
  5
1A5
 10
2.540732
 20
6.836402
 30
0.0
 11
2.620406
 21
6.790402
 31
0.0
  0
LINE
  8
0
  6
CONTINUOUS
 62
     7
  5
1A6
 10
2.49217
 20
6.75229
 30
0.0
 11
2.540732
 21
6.836402
 31
0.0
  0
ARC
  8
0
  6
CONTINUOUS
 62
     7
  5
1A7
 10
2.65455
 20
6.65854
 30
0.0
 40
0.1875
 50
150.0
 51
186.994219
  0
LINE
  8
0
  6
CONTINUOUS
 62
     7
  5
1A8
 10
2.52431
 20
6.180347
 30
0.0
 11
2.468445
 21
6.635708
 31
0.0
  0
ARC
  8
0
  6
CONTINUOUS
 62
     7
  5
1A9
 10
2.429521
 20
6.168718
 30
0.0
 40
0.0955
 50
323.53609
 51
6.994219
  0
LINE
  8
0
  6
CONTINUOUS
 62
     7
  5
1AA
 10
0.940675
 20
6.111961
 30
0.0
 11
1.016895
 21
6.008821
 31
0.0
  0
ARC
  8
0
  6
CONTINUOUS
 62
     7
  5
1AB
 10
1.017479
 20
6.168718
 30
0.0
 40
0.0955
 50
173.005781
 51
216.46391
  0
LINE
  8
0
  6
CONTINUOUS
 62
     7
  5
1AC
 10
0.978555
 20
6.635708
 30
0.0
 11
0.92269
 21
6.180347
 31
0.0
  0
ARC
  8
0
  6
CONTINUOUS
 62
     7
  5
1AD
 10
0.79245
 20
6.65854
 30
0.0
 40
0.1875
 50
353.005781
 51
30.0
  0
LINE
  8
0
  6
CONTINUOUS
 62
     7
  5
1AE
 10
0.906268
 20
6.836402
 30
0.0
 11
0.95483
 21
6.75229
 31
0.0
  0
LINE
  8
0
  6
CONTINUOUS
 62
     7
  5
1AF
 10
0.826594
 20
6.790402
 30
0.0
 11
0.906268
 21
6.836402
 31
0.0
  0
LINE
  8
0
  6
CONTINUOUS
 62
     7
  5
1B0
 10
0.875155
 20
6.70629
 30
0.0
 11
0.826594
 21
6.790402
 31
0.0
  0
ARC
  8
0
  6
CONTINUOUS
 62
     7
  5
1B1
 10
0.79245
 20
6.65854
 30
0.0
 40
0.0955
 50
353.005781
 51
30.0
  0
LINE
  8
0
  6
CONTINUOUS
 62
     7
  5
1B2
 10
0.844053
 20
6.294895
 30
0.0
 11
0.887239
 21
6.646911
 31
0.0
  0
ARC
  8
0
  6
CONTINUOUS
 62
     7
  5
1B3
 10
1.017479
 20
6.168718
 30
0.0
 40
0.1875
 50
213.691257
 51
216.46391
  0
LINE
  8
0
  6
CONTINUOUS
 62
     7
  5
1B4
 10
0.893927
 20
6.020421
 30
0.0
 11
0.866686
 21
6.057284
 31
0.0
  0
LINE
  8
0
  6
CONTINUOUS
 62
     7
  5
1B5
 10
1.117105
 20
6.008821
 30
0.0
 11
1.193325
 21
6.111961
 31
0.0
  0
LINE
  8
0
  6
CONTINUOUS
 62
     7
  5
1B6
 10
1.267314
 20
6.057284
 30
0.0
 11
1.240073
 21
6.020421
 31
0.0
  0
ARC
  8
0
  6
CONTINUOUS
 62
     7
  5
1B7
 10
1.116521
 20
6.168718
 30
0.0
 40
0.1875
 50
323.53609
 51
326.308743
  0
LINE
  8
0
  6
CONTINUOUS
 62
     7
  5
1B8
 10
1.246761
 20
6.646911
 30
0.0
 11
1.289947
 21
6.294895
 31
0.0
  0
ARC
  8
0
  6
CONTINUOUS
 62
     7
  5
1B9
 10
1.34155
 20
6.65854
 30
0.0
 40
0.0955
 50
150.0
 51
186.994219
  0
LINE
  8
0
  6
CONTINUOUS
 62
     7
  5
1BA
 10
1.307406
 20
6.790402
 30
0.0
 11
1.258845
 21
6.70629
 31
0.0
  0
LINE
  8
0
  6
CONTINUOUS
 62
     7
  5
1BB
 10
1.227732
 20
6.836402
 30
0.0
 11
1.307406
 21
6.790402
 31
0.0
  0
LINE
  8
0
  6
CONTINUOUS
 62
     7
  5
1BC
 10
1.17917
 20
6.75229
 30
0.0
 11
1.227732
 21
6.836402
 31
0.0
  0
ARC
  8
0
  6
CONTINUOUS
 62
     7
  5
1BD
 10
1.34155
 20
6.65854
 30
0.0
 40
0.1875
 50
150.0
 51
186.994219
  0
LINE
  8
0
  6
CONTINUOUS
 62
     7
  5
1BE
 10
1.21131
 20
6.180347
 30
0.0
 11
1.155445
 21
6.635708
 31
0.0
  0
ARC
  8
0
  6
CONTINUOUS
 62
     7
  5
1BF
 10
1.116521
 20
6.168718
 30
0.0
 40
0.0955
 50
323.53609
 51
6.994219
  0
LINE
  8
0
  6
CONTINUOUS
 62
     7
  5
1C0
 10
3.564675
 20
6.111961
 30
0.0
 11
3.640895
 21
6.008821
 31
0.0
  0
ARC
  8
0
  6
CONTINUOUS
 62
     7
  5
1C1
 10
3.641479
 20
6.168718
 30
0.0
 40
0.0955
 50
173.005781
 51
216.46391
  0
LINE
  8
0
  6
CONTINUOUS
 62
     7
  5
1C2
 10
3.602555
 20
6.635708
 30
0.0
 11
3.54669
 21
6.180347
 31
0.0
  0
ARC
  8
0
  6
CONTINUOUS
 62
     7
  5
1C3
 10
3.41645
 20
6.65854
 30
0.0
 40
0.1875
 50
353.005781
 51
30.0
  0
LINE
  8
0
  6
CONTINUOUS
 62
     7
  5
1C4
 10
3.530268
 20
6.836402
 30
0.0
 11
3.57883
 21
6.75229
 31
0.0
  0
LINE
  8
0
  6
CONTINUOUS
 62
     7
  5
1C5
 10
3.450594
 20
6.790402
 30
0.0
 11
3.530268
 21
6.836402
 31
0.0
  0
LINE
  8
0
  6
CONTINUOUS
 62
     7
  5
1C6
 10
3.499155
 20
6.70629
 30
0.0
 11
3.450594
 21
6.790402
 31
0.0
  0
ARC
  8
0
  6
CONTINUOUS
 62
     7
  5
1C7
 10
3.41645
 20
6.65854
 30
0.0
 40
0.0955
 50
353.005781
 51
30.0
  0
LINE
  8
0
  6
CONTINUOUS
 62
     7
  5
1C8
 10
3.468053
 20
6.294895
 30
0.0
 11
3.511239
 21
6.646911
 31
0.0
  0
ARC
  8
0
  6
CONTINUOUS
 62
     7
  5
1C9
 10
3.641479
 20
6.168718
 30
0.0
 40
0.1875
 50
213.691257
 51
216.46391
  0
LINE
  8
0
  6
CONTINUOUS
 62
     7
  5
1CA
 10
3.517927
 20
6.020421
 30
0.0
 11
3.490686
 21
6.057284
 31
0.0
  0
LINE
  8
0
  6
CONTINUOUS
 62
     7
  5
1CB
 10
3.741105
 20
6.008821
 30
0.0
 11
3.817325
 21
6.111961
 31
0.0
  0
LINE
  8
0
  6
CONTINUOUS
 62
     7
  5
1CC
 10
3.891314
 20
6.057284
 30
0.0
 11
3.864073
 21
6.020421
 31
0.0
  0
ARC
  8
0
  6
CONTINUOUS
 62
     7
  5
1CD
 10
3.740521
 20
6.168718
 30
0.0
 40
0.1875
 50
323.53609
 51
326.308743
  0
LINE
  8
0
  6
CONTINUOUS
 62
     7
  5
1CE
 10
3.870761
 20
6.646911
 30
0.0
 11
3.913947
 21
6.294895
 31
0.0
  0
ARC
  8
0
  6
CONTINUOUS
 62
     7
  5
1CF
 10
3.96555
 20
6.65854
 30
0.0
 40
0.0955
 50
150.0
 51
186.994219
  0
LINE
  8
0
  6
CONTINUOUS
 62
     7
  5
1D0
 10
3.931406
 20
6.790402
 30
0.0
 11
3.882845
 21
6.70629
 31
0.0
  0
LINE
  8
0
  6
CONTINUOUS
 62
     7
  5
1D1
 10
3.851732
 20
6.836402
 30
0.0
 11
3.931406
 21
6.790402
 31
0.0
  0
LINE
  8
0
  6
CONTINUOUS
 62
     7
  5
1D2
 10
3.80317
 20
6.75229
 30
0.0
 11
3.851732
 21
6.836402
 31
0.0
  0
ARC
  8
0
  6
CONTINUOUS
 62
     7
  5
1D3
 10
3.96555
 20
6.65854
 30
0.0
 40
0.1875
 50
150.0
 51
186.994219
  0
LINE
  8
0
  6
CONTINUOUS
 62
     7
  5
1D4
 10
3.83531
 20
6.180347
 30
0.0
 11
3.779445
 21
6.635708
 31
0.0
  0
ARC
  8
0
  6
CONTINUOUS
 62
     7
  5
1D5
 10
3.740521
 20
6.168718
 30
0.0
 40
0.0955
 50
323.53609
 51
6.994219
  0
LINE
  8
0
  6
CONTINUOUS
 62
     7
  5
1D6
 10
0.0
 20
4.41379
 30
0.0
 11
0.3
 21
4.41379
 31
0.0
  0
LINE
  8
0
  6
CONTINUOUS
 62
     7
  5
1D7
 10
0.3
 20
4.41379
 30
0.0
 11
0.3
 21
4.847402
 31
0.0
  0
LINE
  8
0
  6
CONTINUOUS
 62
     7
  5
1D8
 10
4.173228
 20
4.387271
 30
0.0
 11
4.173228
 21
4.385
 31
0.0
  0
LINE
  8
0
  6
CONTINUOUS
 62
     7
  5
1D9
 10
4.1743
 20
4.387271
 30
0.0
 11
4.173228
 21
4.387271
 31
0.0
  0
LINE
  8
0
  6
CONTINUOUS
 62
     7
  5
1DA
 10
0.0
 20
4.395
 30
0.0
 11
0.0
 21
4.41379
 31
0.0
  0
LINE
  8
0
  6
CONTINUOUS
 62
     7
  5
1DB
 10
0.16
 20
6.56
 30
0.0
 11
0.16
 21
5.374964
 31
0.0
  0
LINE
  8
0
  6
CONTINUOUS
 62
     7
  5
1DC
 10
0.450961
 20
6.56
 30
0.0
 11
0.16
 21
6.56
 31
0.0
  0
LINE
  8
0
  6
CONTINUOUS
 62
     7
  5
1DD
 10
0.387472
 20
6.29555
 30
0.0
 11
0.484293
 21
6.698838
 31
0.0
  0
ARC
  8
0
  6
CONTINUOUS
 62
     7
  5
1DE
 10
0.494433
 20
6.269871
 30
0.0
 40
0.11
 50
166.5
 51
180.0
  0
LINE
  8
0
  6
CONTINUOUS
 62
     7
  5
1DF
 10
0.384433
 20
5.424964
 30
0.0
 11
0.384433
 21
6.269871
 31
0.0
  0
ARC
  8
0
  6
CONTINUOUS
 62
     7
  5
1E0
 10
0.334433
 20
5.424964
 30
0.0
 40
0.05
 50
270.0
 51
0.0
  0
LINE
  8
0
  6
CONTINUOUS
 62
     7
  5
1E1
 10
3.991499
 20
6.737166
 30
0.0
 11
4.234604
 21
6.737166
 31
0.0
  0
ARC
  8
0
  6
CONTINUOUS
 62
     7
  5
1E2
 10
3.991499
 20
6.687166
 30
0.0
 40
0.05
 50
90.0
 51
176.0
  0
LINE
  8
0
  6
CONTINUOUS
 62
     7
  5
1E3
 10
3.898821
 20
6.078589
 30
0.0
 11
3.941621
 21
6.690653
 31
0.0
  0
ARC
  8
0
  6
CONTINUOUS
 62
     7
  5
1E4
 10
3.824004
 20
6.083821
 30
0.0
 40
0.075
 50
270.0
 51
356.0
  0
LINE
  8
0
  6
CONTINUOUS
 62
     7
  5
1E5
 10
3.557996
 20
6.008821
 30
0.0
 11
3.824004
 21
6.008821
 31
0.0
  0
ARC
  8
0
  6
CONTINUOUS
 62
     7
  5
1E6
 10
3.557996
 20
6.083821
 30
0.0
 40
0.075
 50
184.0
 51
270.0
  0
LINE
  8
0
  6
CONTINUOUS
 62
     7
  5
1E7
 10
3.432671
 20
6.800889
 30
0.0
 11
3.483179
 21
6.078589
 31
0.0
  0
ARC
  8
0
  6
CONTINUOUS
 62
     7
  5
1E8
 10
3.382793
 20
6.797402
 30
0.0
 40
0.05
 50
4.0
 51
90.0
  0
LINE
  8
0
  6
CONTINUOUS
 62
     7
  5
1E9
 10
1.375207
 20
6.847402
 30
0.0
 11
1.507793
 21
6.847402
 31
0.0
  0
ARC
  8
0
  6
CONTINUOUS
 62
     7
  5
1EA
 10
1.375207
 20
6.797402
 30
0.0
 40
0.05
 50
90.0
 51
176.0
  0
LINE
  8
0
  6
CONTINUOUS
 62
     7
  5
1EB
 10
1.274821
 20
6.078589
 30
0.0
 11
1.325329
 21
6.800889
 31
0.0
  0
ARC
  8
0
  6
CONTINUOUS
 62
     7
  5
1EC
 10
1.200004
 20
6.083821
 30
0.0
 40
0.075
 50
270.0
 51
356.0
  0
LINE
  8
0
  6
CONTINUOUS
 62
     7
  5
1ED
 10
0.933996
 20
6.008821
 30
0.0
 11
1.200004
 21
6.008821
 31
0.0
  0
ARC
  8
0
  6
CONTINUOUS
 62
     7
  5
1EE
 10
0.933996
 20
6.083821
 30
0.0
 40
0.075
 50
184.0
 51
270.0
  0
LINE
  8
0
  6
CONTINUOUS
 62
     7
  5
1EF
 10
0.816379
 20
6.690653
 30
0.0
 11
0.859179
 21
6.078589
 31
0.0
  0
ARC
  8
0
  6
CONTINUOUS
 62
     7
  5
1F0
 10
0.766501
 20
6.687166
 30
0.0
 40
0.05
 50
4.0
 51
90.0
  0
LINE
  8
0
  6
CONTINUOUS
 62
     7
  5
1F1
 10
2.687207
 20
6.847402
 30
0.0
 11
2.819793
 21
6.847402
 31
0.0
  0
ARC
  8
0
  6
CONTINUOUS
 62
     7
  5
1F2
 10
2.687207
 20
6.797402
 30
0.0
 40
0.05
 50
90.0
 51
176.0
  0
LINE
  8
0
  6
CONTINUOUS
 62
     7
  5
1F3
 10
2.586821
 20
6.078589
 30
0.0
 11
2.637329
 21
6.800889
 31
0.0
  0
ARC
  8
0
  6
CONTINUOUS
 62
     7
  5
1F4
 10
2.512004
 20
6.083821
 30
0.0
 40
0.075
 50
270.0
 51
356.0
  0
LINE
  8
0
  6
CONTINUOUS
 62
     7
  5
1F5
 10
2.245996
 20
6.008821
 30
0.0
 11
2.512004
 21
6.008821
 31
0.0
  0
ARC
  8
0
  6
CONTINUOUS
 62
     7
  5
1F6
 10
2.245996
 20
6.083821
 30
0.0
 40
0.075
 50
184.0
 51
270.0
  0
LINE
  8
0
  6
CONTINUOUS
 62
     7
  5
1F7
 10
2.120671
 20
6.800889
 30
0.0
 11
2.171179
 21
6.078589
 31
0.0
  0
ARC
  8
0
  6
CONTINUOUS
 62
     7
  5
1F8
 10
2.070793
 20
6.797402
 30
0.0
 40
0.05
 50
4.0
 51
90.0
  0
LINE
  8
0
  6
CONTINUOUS
 62
     7
  5
1F9
 10
4.1743
 20
4.847402
 30
0.0
 11
4.1743
 21
4.387271
 31
0.0
  0
LINE
  8
0
  6
CONTINUOUS
 62
     7
  5
1FA
 10
0.3
 20
4.847402
 30
0.0
 11
4.1743
 21
4.847402
 31
0.0
  0
LINE
  8
0
  6
CONTINUOUS
 62
     7
  5
1FB
 10
4.76378
 20
4.387271
 30
0.0
 11
4.1743
 21
4.387271
 31
0.0
  0
LINE
  8
0
  6
CONTINUOUS
 62
     7
  5
1FC
 10
0.532911
 20
6.737166
 30
0.0
 11
0.766501
 21
6.737166
 31
0.0
  0
ARC
  8
0
  6
CONTINUOUS
 62
     7
  5
1FD
 10
1.507793
 20
6.797402
 30
0.0
 40
0.05
 50
4.0
 51
90.0
  0
LINE
  8
0
  6
CONTINUOUS
 62
     7
  5
1FE
 10
1.557671
 20
6.800889
 30
0.0
 11
1.608179
 21
6.078589
 31
0.0
  0
ARC
  8
0
  6
CONTINUOUS
 62
     7
  5
1FF
 10
1.682996
 20
6.083821
 30
0.0
 40
0.075
 50
184.0
 51
270.0
  0
LINE
  8
0
  6
CONTINUOUS
 62
     7
  5
200
 10
1.682996
 20
6.008821
 30
0.0
 11
1.763004
 21
6.008821
 31
0.0
  0
ARC
  8
0
  6
CONTINUOUS
 62
     7
  5
201
 10
1.763004
 20
6.083821
 30
0.0
 40
0.075
 50
270.0
 51
356.0
  0
LINE
  8
0
  6
CONTINUOUS
 62
     7
  5
202
 10
1.837821
 20
6.078589
 30
0.0
 11
1.888329
 21
6.800889
 31
0.0
  0
ARC
  8
0
  6
CONTINUOUS
 62
     7
  5
203
 10
1.938207
 20
6.797402
 30
0.0
 40
0.05
 50
90.0
 51
176.0
  0
LINE
  8
0
  6
CONTINUOUS
 62
     7
  5
204
 10
1.938207
 20
6.847402
 30
0.0
 11
2.070793
 21
6.847402
 31
0.0
  0
ARC
  8
0
  6
CONTINUOUS
 62
     7
  5
205
 10
2.819793
 20
6.797402
 30
0.0
 40
0.05
 50
4.0
 51
90.0
  0
LINE
  8
0
  6
CONTINUOUS
 62
     7
  5
206
 10
2.869671
 20
6.800889
 30
0.0
 11
2.920179
 21
6.078589
 31
0.0
  0
ARC
  8
0
  6
CONTINUOUS
 62
     7
  5
207
 10
2.994996
 20
6.083821
 30
0.0
 40
0.075
 50
184.0
 51
270.0
  0
LINE
  8
0
  6
CONTINUOUS
 62
     7
  5
208
 10
2.994996
 20
6.008821
 30
0.0
 11
3.075004
 21
6.008821
 31
0.0
  0
ARC
  8
0
  6
CONTINUOUS
 62
     7
  5
209
 10
3.075004
 20
6.083821
 30
0.0
 40
0.075
 50
270.0
 51
356.0
  0
LINE
  8
0
  6
CONTINUOUS
 62
     7
  5
20A
 10
3.149821
 20
6.078589
 30
0.0
 11
3.200329
 21
6.800889
 31
0.0
  0
ARC
  8
0
  6
CONTINUOUS
 62
     7
  5
20B
 10
3.250207
 20
6.797402
 30
0.0
 40
0.05
 50
90.0
 51
176.0
  0
LINE
  8
0
  6
CONTINUOUS
 62
     7
  5
20C
 10
3.250207
 20
6.847402
 30
0.0
 11
3.382793
 21
6.847402
 31
0.0
  0
ARC
  8
0
  6
CONTINUOUS
 62
     7
  5
20D
 10
4.234604
 20
6.687166
 30
0.0
 40
0.05
 50
15.329292
 51
90.0
  0
LINE
  8
0
  6
CONTINUOUS
 62
     7
  5
20E
 10
4.282825
 20
6.700384
 30
0.0
 11
4.701051
 21
5.174672
 31
0.0
  0
LINE
  8
0
  6
CONTINUOUS
 62
     7
  5
20F
 10
4.701051
 20
5.174672
 30
0.0
 11
4.76378
 21
5.174672
 31
0.0
  0
LINE
  8
0
  6
CONTINUOUS
 62
     7
  5
210
 10
4.76378
 20
5.174672
 30
0.0
 11
4.76378
 21
4.387271
 31
0.0
  0
ARC
  8
0
  6
CONTINUOUS
 62
     7
  5
211
 10
0.142
 20
5.232964
 30
0.0
 40
0.142
 50
90.0
 51
180.0
  0
LINE
  8
0
  6
CONTINUOUS
 62
     7
  5
212
 10
0.142
 20
5.374964
 30
0.0
 11
0.334433
 21
5.374964
 31
0.0
  0
ARC
  8
0
  6
CONTINUOUS
 62
     7
  5
213
 10
0.532911
 20
6.687166
 30
0.0
 40
0.05
 50
90.0
 51
166.5
  0
LINE
  8
0
  6
CONTINUOUS
 62
     7
  5
214
 10
0.0
 20
4.41379
 30
0.0
 11
0.0
 21
5.232964
 31
0.0
  0
LINE
  8
0
  6
CONTINUOUS
 62
     7
  5
215
 10
4.1031
 20
4.385
 30
0.0
 11
4.2306
 21
4.385
 31
0.0
  0
LINE
  8
0
  6
CONTINUOUS
 62
     7
  5
216
 10
0.0
 20
4.395
 30
0.0
 11
4.1031
 21
4.395
 31
0.0
  0
LINE
  8
0
  6
CONTINUOUS
 62
     7
  5
217
 10
4.2306
 20
-4.385
 30
0.0
 11
4.1031
 21
-4.385
 31
0.0
  0
LINE
  8
0
  6
CONTINUOUS
 62
     7
  5
218
 10
4.2306
 20
-4.135
 30
0.0
 11
4.2306
 21
-4.385
 31
0.0
  0
LINE
  8
0
  6
CONTINUOUS
 62
     7
  5
219
 10
5.51
 20
-4.135
 30
0.0
 11
4.2306
 21
-4.135
 31
0.0
  0
LINE
  8
0
  6
CONTINUOUS
 62
     7
  5
21A
 10
5.51
 20
-3.835
 30
0.0
 11
5.51
 21
-4.135
 31
0.0
  0
LINE
  8
0
  6
CONTINUOUS
 62
     7
  5
21B
 10
5.77
 20
-3.835
 30
0.0
 11
5.51
 21
-3.835
 31
0.0
  0
LINE
  8
0
  6
CONTINUOUS
 62
     7
  5
21C
 10
5.77
 20
-3.75
 30
0.0
 11
5.77
 21
-3.835
 31
0.0
  0
LINE
  8
0
  6
CONTINUOUS
 62
     7
  5
21D
 10
5.77
 20
-3.75
 30
0.0
 11
4.23
 21
-3.75
 31
0.0
  0
LINE
  8
0
  6
CONTINUOUS
 62
     7
  5
21E
 10
4.23
 20
-3.75
 30
0.0
 11
4.23
 21
-3.45
 31
0.0
  0
LINE
  8
0
  6
CONTINUOUS
 62
     7
  5
21F
 10
4.23
 20
-3.45
 30
0.0
 11
5.77
 21
-3.45
 31
0.0
  0
LINE
  8
0
  6
CONTINUOUS
 62
     7
  5
220
 10
5.77
 20
3.45
 30
0.0
 11
5.77
 21
-3.45
 31
0.0
  0
LINE
  8
0
  6
CONTINUOUS
 62
     7
  5
221
 10
5.77
 20
3.45
 30
0.0
 11
4.23
 21
3.45
 31
0.0
  0
LINE
  8
0
  6
CONTINUOUS
 62
     7
  5
222
 10
4.23
 20
3.45
 30
0.0
 11
4.23
 21
3.75
 31
0.0
  0
LINE
  8
0
  6
CONTINUOUS
 62
     7
  5
223
 10
4.23
 20
3.75
 30
0.0
 11
5.77
 21
3.75
 31
0.0
  0
LINE
  8
0
  6
CONTINUOUS
 62
     7
  5
224
 10
5.77
 20
3.835
 30
0.0
 11
5.77
 21
3.75
 31
0.0
  0
LINE
  8
0
  6
CONTINUOUS
 62
     7
  5
225
 10
5.51
 20
3.835
 30
0.0
 11
5.77
 21
3.835
 31
0.0
  0
LINE
  8
0
  6
CONTINUOUS
 62
     7
  5
226
 10
5.51
 20
4.135
 30
0.0
 11
5.51
 21
3.835
 31
0.0
  0
LINE
  8
0
  6
CONTINUOUS
 62
     7
  5
227
 10
4.2306
 20
4.135
 30
0.0
 11
5.51
 21
4.135
 31
0.0
  0
LINE
  8
0
  6
CONTINUOUS
 62
     7
  5
228
 10
4.2306
 20
4.385
 30
0.0
 11
4.2306
 21
4.135
 31
0.0
  0
LINE
  8
0
  6
CONTINUOUS
 62
     7
  5
229
 10
7.779337
 20
-3.001098
 30
0.0
 11
6.034578
 21
-2.187504
 31
0.0
  0
LINE
  8
0
  6
CONTINUOUS
 62
     7
  5
22A
 10
7.568027
 20
-3.454252
 30
0.0
 11
6.005341
 21
-2.72556
 31
0.0
  0
LINE
  8
0
  6
CONTINUOUS
 62
     7
  5
22B
 10
7.779337
 20
-3.001098
 30
0.0
 11
7.568027
 21
-3.454252
 31
0.0
  0
LINE
  8
0
  6
CONTINUOUS
 62
     7
  5
22C
 10
7.4575
 20
0.766602
 30
0.0
 11
5.997864
 21
-0.009501
 31
0.0
  0
LINE
  8
0
  6
CONTINUOUS
 62
     7
  5
22D
 10
7.692236
 20
0.325128
 30
0.0
 11
6.030563
 21
-0.5584
 31
0.0
  0
LINE
  8
0
  6
CONTINUOUS
 62
     7
  5
22E
 10
7.4575
 20
0.766602
 30
0.0
 11
7.692236
 21
0.325128
 31
0.0
  0
LINE
  8
0
  6
CONTINUOUS
 62
     7
  5
22F
 10
8.032115
 20
-0.822283
 30
0.0
 11
6.045297
 21
-0.996107
 31
0.0
  0
LINE
  8
0
  6
CONTINUOUS
 62
     7
  5
230
 10
8.075693
 20
-1.32038
 30
0.0
 11
6.049842
 21
-1.497619
 31
0.0
  0
LINE
  8
0
  6
CONTINUOUS
 62
     7
  5
231
 10
8.032115
 20
-0.822283
 30
0.0
 11
8.075693
 21
-1.32038
 31
0.0
  0
LINE
  8
0
  6
CONTINUOUS
 62
     7
  5
232
 10
5.92
 20
-3.645
 30
0.0
 11
5.77
 21
-3.645
 31
0.0
  0
LINE
  8
0
  6
CONTINUOUS
 62
     7
  5
233
 10
5.77
 20
0.805
 30
0.0
 11
5.92
 21
0.805
 31
0.0
  0
LINE
  8
0
  6
CONTINUOUS
 62
     7
  5
234
 10
5.77
 20
-3.45
 30
0.0
 11
5.77
 21
-3.75
 31
0.0
  0
LINE
  8
0
  6
CONTINUOUS
 62
     7
  5
235
 10
5.77
 20
3.75
 30
0.0
 11
5.77
 21
3.45
 31
0.0
  0
LINE
  8
0
  6
CONTINUOUS
 62
     7
  5
236
 10
5.77
 20
3.75
 30
0.0
 11
5.77
 21
3.45
 31
0.0
  0
LINE
  8
0
  6
CONTINUOUS
 62
     7
  5
237
 10
5.77
 20
-3.45
 30
0.0
 11
5.77
 21
-3.75
 31
0.0
  0
ARC
  8
0
  6
CONTINUOUS
 62
     7
  5
238
 10
-13.055865
 20
-1.42
 30
0.0
 40
19.105865
 50
353.312366
 51
6.687634
  0
LINE
  8
0
  6
CONTINUOUS
 62
     7
  5
239
 10
3.007402
 20
4.001299
 30
0.0
 11
3.252162
 21
4.001299
 31
0.0
  0
LINE
  8
0
  6
CONTINUOUS
 62
     7
  5
23A
 10
3.252162
 20
4.001299
 30
0.0
 11
3.252162
 21
1.151299
 31
0.0
  0
LINE
  8
0
  6
CONTINUOUS
 62
     7
  5
23B
 10
3.223531
 20
4.001299
 30
0.0
 11
3.223531
 21
1.151299
 31
0.0
  0
LINE
  8
0
  6
CONTINUOUS
 62
     7
  5
23C
 10
3.252162
 20
1.151299
 30
0.0
 11
3.007402
 21
1.151299
 31
0.0
  0
LINE
  8
0
  6
CONTINUOUS
 62
     7
  5
23D
 10
3.007402
 20
1.151299
 30
0.0
 11
3.007402
 21
4.001299
 31
0.0
  0
LINE
  8
0
  6
CONTINUOUS
 62
     7
  5
23E
 10
2.637402
 20
4.001299
 30
0.0
 11
2.882162
 21
4.001299
 31
0.0
  0
LINE
  8
0
  6
CONTINUOUS
 62
     7
  5
23F
 10
2.882162
 20
4.001299
 30
0.0
 11
2.882162
 21
1.151299
 31
0.0
  0
LINE
  8
0
  6
CONTINUOUS
 62
     7
  5
240
 10
2.853531
 20
4.001299
 30
0.0
 11
2.853531
 21
1.151299
 31
0.0
  0
LINE
  8
0
  6
CONTINUOUS
 62
     7
  5
241
 10
2.882162
 20
1.151299
 30
0.0
 11
2.637402
 21
1.151299
 31
0.0
  0
LINE
  8
0
  6
CONTINUOUS
 62
     7
  5
242
 10
2.637402
 20
1.151299
 30
0.0
 11
2.637402
 21
4.001299
 31
0.0
  0
LINE
  8
0
  6
CONTINUOUS
 62
     7
  5
243
 10
2.267402
 20
4.001299
 30
0.0
 11
2.512162
 21
4.001299
 31
0.0
  0
LINE
  8
0
  6
CONTINUOUS
 62
     7
  5
244
 10
2.512162
 20
4.001299
 30
0.0
 11
2.512162
 21
1.151299
 31
0.0
  0
LINE
  8
0
  6
CONTINUOUS
 62
     7
  5
245
 10
2.483531
 20
4.001299
 30
0.0
 11
2.483531
 21
1.151299
 31
0.0
  0
LINE
  8
0
  6
CONTINUOUS
 62
     7
  5
246
 10
2.512162
 20
1.151299
 30
0.0
 11
2.267402
 21
1.151299
 31
0.0
  0
LINE
  8
0
  6
CONTINUOUS
 62
     7
  5
247
 10
2.267402
 20
1.151299
 30
0.0
 11
2.267402
 21
4.001299
 31
0.0
  0
LINE
  8
0
  6
CONTINUOUS
 62
     7
  5
248
 10
1.897402
 20
4.001299
 30
0.0
 11
2.142162
 21
4.001299
 31
0.0
  0
LINE
  8
0
  6
CONTINUOUS
 62
     7
  5
249
 10
2.142162
 20
4.001299
 30
0.0
 11
2.142162
 21
1.151299
 31
0.0
  0
LINE
  8
0
  6
CONTINUOUS
 62
     7
  5
24A
 10
2.113531
 20
4.001299
 30
0.0
 11
2.113531
 21
1.151299
 31
0.0
  0
LINE
  8
0
  6
CONTINUOUS
 62
     7
  5
24B
 10
2.142162
 20
1.151299
 30
0.0
 11
1.897402
 21
1.151299
 31
0.0
  0
LINE
  8
0
  6
CONTINUOUS
 62
     7
  5
24C
 10
1.897402
 20
1.151299
 30
0.0
 11
1.897402
 21
4.001299
 31
0.0
  0
LINE
  8
0
  6
CONTINUOUS
 62
     7
  5
24D
 10
1.527402
 20
4.001299
 30
0.0
 11
1.772162
 21
4.001299
 31
0.0
  0
LINE
  8
0
  6
CONTINUOUS
 62
     7
  5
24E
 10
1.772162
 20
4.001299
 30
0.0
 11
1.772162
 21
1.151299
 31
0.0
  0
LINE
  8
0
  6
CONTINUOUS
 62
     7
  5
24F
 10
1.743531
 20
4.001299
 30
0.0
 11
1.743531
 21
1.151299
 31
0.0
  0
LINE
  8
0
  6
CONTINUOUS
 62
     7
  5
250
 10
1.772162
 20
1.151299
 30
0.0
 11
1.527402
 21
1.151299
 31
0.0
  0
LINE
  8
0
  6
CONTINUOUS
 62
     7
  5
251
 10
1.527402
 20
1.151299
 30
0.0
 11
1.527402
 21
4.001299
 31
0.0
  0
LINE
  8
0
  6
CONTINUOUS
 62
     7
  5
252
 10
1.157402
 20
4.001299
 30
0.0
 11
1.402162
 21
4.001299
 31
0.0
  0
LINE
  8
0
  6
CONTINUOUS
 62
     7
  5
253
 10
1.402162
 20
4.001299
 30
0.0
 11
1.402162
 21
1.151299
 31
0.0
  0
LINE
  8
0
  6
CONTINUOUS
 62
     7
  5
254
 10
1.373531
 20
4.001299
 30
0.0
 11
1.373531
 21
1.151299
 31
0.0
  0
LINE
  8
0
  6
CONTINUOUS
 62
     7
  5
255
 10
1.402162
 20
1.151299
 30
0.0
 11
1.157402
 21
1.151299
 31
0.0
  0
LINE
  8
0
  6
CONTINUOUS
 62
     7
  5
256
 10
1.157402
 20
1.151299
 30
0.0
 11
1.157402
 21
4.001299
 31
0.0
  0
LINE
  8
0
  6
CONTINUOUS
 62
     7
  5
257
 10
0.787402
 20
4.001299
 30
0.0
 11
1.032162
 21
4.001299
 31
0.0
  0
LINE
  8
0
  6
CONTINUOUS
 62
     7
  5
258
 10
1.032162
 20
4.001299
 30
0.0
 11
1.032162
 21
1.151299
 31
0.0
  0
LINE
  8
0
  6
CONTINUOUS
 62
     7
  5
259
 10
1.003531
 20
4.001299
 30
0.0
 11
1.003531
 21
1.151299
 31
0.0
  0
LINE
  8
0
  6
CONTINUOUS
 62
     7
  5
25A
 10
1.032162
 20
1.151299
 30
0.0
 11
0.787402
 21
1.151299
 31
0.0
  0
LINE
  8
0
  6
CONTINUOUS
 62
     7
  5
25B
 10
0.787402
 20
1.151299
 30
0.0
 11
0.787402
 21
4.001299
 31
0.0
  0
LINE
  8
0
  6
CONTINUOUS
 62
     7
  5
25C
 10
4.1031
 20
4.395
 30
0.0
 11
4.1031
 21
-4.395
 31
0.0
  0
LINE
  8
0
  6
CONTINUOUS
 62
     7
  5
25D
 10
0.0
 20
4.395
 30
0.0
 11
0.0
 21
-4.395
 31
0.0
  0
LINE
  8
0
  6
CONTINUOUS
 62
     7
  5
25E
 10
0.03937
 20
-7.173268
 30
0.0
 11
0.012795
 21
-7.173268
 31
0.0
  0
LINE
  8
0
  6
CONTINUOUS
 62
     7
  5
25F
 10
0.012795
 20
-7.423268
 30
0.0
 11
0.03937
 21
-7.423268
 31
0.0
  0
LINE
  8
0
  6
CONTINUOUS
 62
     7
  5
260
 10
0.637795
 20
-7.057268
 30
0.0
 11
0.500795
 21
-7.057268
 31
0.0
  0
LINE
  8
0
  6
CONTINUOUS
 62
     7
  5
261
 10
0.500795
 20
-7.539268
 30
0.0
 11
0.637795
 21
-7.539268
 31
0.0
  0
LINE
  8
0
  6
CONTINUOUS
 62
     7
  5
262
 10
0.012795
 20
-7.173268
 30
0.0
 11
-0.112205
 21
-7.206761
 31
0.0
  0
LINE
  8
0
  6
CONTINUOUS
 62
     7
  5
263
 10
-0.112205
 20
-7.389774
 30
0.0
 11
0.012795
 21
-7.423268
 31
0.0
  0
LINE
  8
0
  6
CONTINUOUS
 62
     7
  5
264
 10
0.500795
 20
-7.173268
 30
0.0
 11
0.137795
 21
-7.173268
 31
0.0
  0
LINE
  8
0
  6
CONTINUOUS
 62
     7
  5
265
 10
0.137795
 20
-7.423268
 30
0.0
 11
0.500795
 21
-7.423268
 31
0.0
  0
LINE
  8
0
  6
CONTINUOUS
 62
     3
  5
266
 10
3.715
 20
-1.44
 30
0.0
 11
8.07
 21
-1.44
 31
0.0
  0
LINE
  8
0
  6
CONTINUOUS
 62
     3
  5
267
 10
8.053904
 20
-1.071331
 30
0.0
 11
3.84
 21
-1.44
 31
0.0
  0
LINE
  8
0
  6
CONTINUOUS
 62
     3
  5
268
 10
7.574868
 20
0.545865
 30
0.0
 11
3.84
 21
-1.44
 31
0.0
  0
LINE
  8
0
  6
CONTINUOUS
 62
     3
  5
269
 10
7.673682
 20
-3.227675
 30
0.0
 11
3.84
 21
-1.44
 31
0.0
  0
LINE
  8
0
  6
CONTINUOUS
 62
     3
  5
26A
 10
3.84
 20
-1.315
 30
0.0
 11
3.84
 21
-1.565
 31
0.0
  0
ENDSEC
  0
EOF
