  0
SECTION
  2
HEADER
  9
$ACADVER
  1
AC1009
  9
$DWGCODEPAGE
  3
ansi_1250
  9
$INSBASE
 10
0.0
 20
0.0
 30
0.0
  9
$EXTMIN
 10
-4.834
 20
-2.638
 30
0.0
  9
$EXTMAX
 10
0.118
 20
2.913
 30
0.0
  9
$LIMMIN
 10
0.0
 20
0.0
  9
$LIMMAX
 10
0.0
 20
0.0
  9
$ORTHOMODE
 70
     0
  9
$REGENMODE
 70
     1
  9
$FILLMODE
 70
     1
  9
$QTEXTMODE
 70
     0
  9
$MIRRTEXT
 70
     1
  9
$DRAGMODE
 70
     2
  9
$LTSCALE
 40
1.0
  9
$OSMODE
 70
     0
  9
$ATTMODE
 70
     1
  9
$TEXTSIZE
 40
0.2
  9
$TRACEWID
 40
0.05
  9
$TEXTSTYLE
  7
STANDARD
  9
$CLAYER
  8
0
  9
$CELTYPE
  6
CONTINUOUS
  9
$CECOLOR
 62
   256
  9
$DIMSCALE
 40
1.0
  9
$DIMASZ
 40
0.18
  9
$DIMEXO
 40
0.0625
  9
$DIMDLI
 40
0.38
  9
$DIMRND
 40
0.0
  9
$DIMDLE
 40
0.0
  9
$DIMEXE
 40
0.18
  9
$DIMTP
 40
0.0
  9
$DIMTM
 40
0.0
  9
$DIMTXT
 40
0.18
  9
$DIMCEN
 40
0.09
  9
$DIMTSZ
 40
0.0
  9
$DIMTOL
 70
     0
  9
$DIMLIM
 70
     0
  9
$DIMTIH
 70
     1
  9
$DIMTOH
 70
     1
  9
$DIMSE1
 70
     0
  9
$DIMSE2
 70
     0
  9
$DIMTAD
 70
     0
  9
$DIMZIN
 70
     0
  9
$DIMBLK
  1

  9
$DIMASO
 70
     1
  9
$DIMSHO
 70
     1
  9
$DIMPOST
  1

  9
$DIMAPOST
  1

  9
$DIMALT
 70
     0
  9
$DIMALTD
 70
     2
  9
$DIMALTF
 40
25.4
  9
$DIMLFAC
 40
1.0
  9
$DIMTOFL
 70
     0
  9
$DIMTVP
 40
0.0
  9
$DIMTIX
 70
     0
  9
$DIMSOXD
 70
     0
  9
$DIMSAH
 70
     0
  9
$DIMBLK1
  1

  9
$DIMBLK2
  1

  9
$DIMSTYLE
  2
STANDARD
  9
$DIMCLRD
 70
     0
  9
$DIMCLRE
 70
     0
  9
$DIMCLRT
 70
     0
  9
$DIMTFAC
 40
1.0
  9
$DIMGAP
 40
0.09
  9
$LUNITS
 70
     2
  9
$LUPREC
 70
     4
  9
$AXISMODE
 70
     0
  9
$AXISUNIT
 10
0.0
 20
0.0
  9
$SKETCHINC
 40
0.1
  9
$FILLETRAD
 40
0.0
  9
$AUNITS
 70
     0
  9
$AUPREC
 70
     0
  9
$MENU
  1
acad
  9
$ELEVATION
 40
0.0
  9
$PELEVATION
 40
0.0
  9
$THICKNESS
 40
0.0
  9
$LIMCHECK
 70
     0
  9
$BLIPMODE
 70
     1
  9
$CHAMFERA
 40
0.0
  9
$CHAMFERB
 40
0.0
  9
$SKPOLY
 70
     0
  9
$TDCREATE
 40
0.000000000
  9
$TDUPDATE
 40
0.000000000
  9
$TDINDWG
 40
0.0000000000
  9
$TDUSRTIMER
 40
0.0000000000
  9
$USRTIMER
 70
     1
  9
$ANGBASE
 50
0.0
  9
$ANGDIR
 70
     0
  9
$PDMODE
 70
     0
  9
$PDSIZE
 40
0.0
  9
$PLINEWID
 40
0.0
  9
$COORDS
 70
     0
  9
$SPLFRAME
 70
     0
  9
$SPLINETYPE
 70
     6
  9
$SPLINESEGS
 70
     8
  9
$ATTDIA
 70
     0
  9
$ATTREQ
 70
     1
  9
$HANDLING
 70
     1
  9
$HANDSEED
  5
4BC
  9
$SURFTAB1
 70
     6
  9
$SURFTAB2
 70
     6
  9
$SURFTYPE
 70
     6
  9
$SURFU
 70
     6
  9
$SURFV
 70
     6
  9
$UCSNAME
  2

  9
$UCSORG
 10
0.0
 20
0.0
 30
0.0
  9
$UCSXDIR
 10
1.0
 20
0.0
 30
0.0
  9
$UCSYDIR
 10
0.0
 20
1.0
 30
0.0
  9
$PUCSNAME
  2

  9
$PUCSORG
 10
0.0
 20
0.0
 30
0.0
  9
$PUCSXDIR
 10
1.0
 20
0.0
 30
0.0
  9
$PUCSYDIR
 10
0.0
 20
1.0
 30
0.0
  9
$USERI1
 70
     0
  9
$USERI2
 70
     0
  9
$USERI3
 70
     0
  9
$USERI4
 70
     0
  9
$USERI5
 70
     0
  9
$USERR1
 40
0.0
  9
$USERR2
 40
0.0
  9
$USERR3
 40
0.0
  9
$USERR4
 40
0.0
  9
$USERR5
 40
0.0
  9
$WORLDVIEW
 70
     1
  9
$SHADEDGE
 70
     3
  9
$SHADEDIF
 70
    70
  9
$TILEMODE
 70
     1
  9
$MAXACTVP
 70
    16
  9
$PINSBASE
 10
0.0
 20
0.0
 30
0.0
  9
$PLIMCHECK
 70
     0
  9
$PEXTMIN
 10
1.000000E+20
 20
1.000000E+20
 30
1.000000E+20
  9
$PEXTMAX
 10
-1.000000E+20
 20
-1.000000E+20
 30
-1.000000E+20
  9
$PLIMMIN
 10
0.0
 20
0.0
  9
$PLIMMAX
 10
12.0
 20
9.0
  9
$UNITMODE
 70
     0
  9
$VISRETAIN
 70
     0
  9
$PLINEGEN
 70
     1
  9
$PSLTSCALE
 70
     0
  9
$TREEDEPTH
 70
  3020
  0
ENDSEC
  0
SECTION
  2
TABLES
  0
TABLE
  2
VPORT
 70
     1
  0
VPORT
  2
*ACTIVE
 70
     0
 10
0.0
 20
0.0
 11
1.0
 21
1.0
 12
6.591288
 22
4.579184
 13
0.0
 23
0.0
 14
1.0
 24
1.0
 15
0.0
 25
0.0
 16
0.0
 26
0.0
 36
1.0
 17
0.0
 27
0.0
 37
0.0
 40
9.158369
 41
0.688564
 42
50.0
 43
0.0
 44
0.0
 50
0.0
 51
0.0
 71
     0
 72
   100
 73
     1
 74
     1
 75
     0
 76
     0
 77
     0
 78
     0
  0
ENDTAB
  0
TABLE
  2
LTYPE
 70
     5
  0
LTYPE
  2
CONTINUOUS
 70
    64
  3
Solid line
 72
    65
 73
     0
 40
0.0
  0
LTYPE
  2
CENTER
 70
    64
  3
Center ____ _ ____ _ ____ _ ____ _ ____ _ ____
 72
    65
 73
     4
 40
50.8
 49
31.75
 49
-6.35
 49
6.35
 49
-6.35
  0
LTYPE
  2
HIDDEN
 70
    64
  3
Hidden __ __ __ __ __ __ __ __ __ __ __ __ __ __
 72
    65
 73
     2
 40
9.525
 49
6.35
 49
-3.175
  0
LTYPE
  2
CENTER2
 70
    64
  3
Center (.5x) ___ _ ___ _ ___ _ ___ _ ___ _ ___
 72
    65
 73
     4
 40
28.575
 49
19.05
 49
-3.175
 49
3.175
 49
-3.175
  0
LTYPE
  2
HIDDEN2
 70
    64
  3
Hidden (.5x) _ _ _ _ _ _ _ _ _ _ _ _ _ _ _ _ _
 72
    65
 73
     2
 40
4.7625
 49
3.175
 49
-1.5875
  0
ENDTAB
  0
TABLE
  2
LAYER
 70
     1
  0
LAYER
  2
0
 70
     0
 62
     7
  6
CONTINUOUS
  0
ENDTAB
  0
TABLE
  2
STYLE
 70
     1
  0
STYLE
  2
STANDARD
 70
     0
 40
0.0
 41
1.0
 50
0.0
 71
     0
 42
0.0
  3
txt
  4

  0
ENDTAB
  0
TABLE
  2
VIEW
 70
     0
  0
ENDTAB
  0
TABLE
  2
UCS
 70
     0
  0
ENDTAB
  0
TABLE
  2
APPID
 70
     1
  0
APPID
  2
ACAD
 70
     0
  0
ENDTAB
  0
TABLE
  2
DIMSTYLE
 70
     1
  0
DIMSTYLE
  2
STANDARD
 70
     0
  3

  4

  5

  6

  7

 40
1.0
 41
0.18
 42
0.0625
 43
0.38
 44
0.18
 45
0.0
 46
0.0
 47
0.0
 48
0.0
 71
     0
 72
     0
 73
     1
 74
     1
 75
     0
 76
     0
 77
     0
 78
     0
140
0.18
141
0.09
142
0.0
143
25.4
144
1.0
145
0.0
146
1.0
147
0.09
170
     0
171
     2
172
     0
173
     0
174
     0
175
     0
176
     0
177
     0
178
     0
  0
ENDTAB
  0
ENDSEC
  0
SECTION
  2
BLOCKS
  0
ENDSEC
  0
SECTION
  2
ENTITIES
  0
LINE
  8
0
  6
CONTINUOUS
 62
     7
  5
27D
 10
-0.472
 20
-2.402
 30
0.0
 11
-0.472
 21
-2.638
 31
0.0
  0
LINE
  8
0
  6
CONTINUOUS
 62
     7
  5
27E
 10
-0.236
 20
-2.638
 30
0.0
 11
-0.472
 21
-2.638
 31
0.0
  0
LINE
  8
0
  6
CONTINUOUS
 62
     7
  5
27F
 10
-0.236
 20
-2.402
 30
0.0
 11
-0.236
 21
-2.638
 31
0.0
  0
LINE
  8
0
  6
CONTINUOUS
 62
     7
  5
280
 10
-0.236
 20
2.913
 30
0.0
 11
-0.236
 21
2.35
 31
0.0
  0
LINE
  8
0
  6
CONTINUOUS
 62
     7
  5
281
 10
-0.236
 20
-2.402
 30
0.0
 11
-0.236
 21
2.35
 31
0.0
  0
LINE
  8
0
  6
CONTINUOUS
 62
     7
  5
282
 10
-0.2713
 20
2.35
 30
0.0
 11
-0.2713
 21
2.82475
 31
0.0
  0
LINE
  8
0
  6
CONTINUOUS
 62
     7
  5
283
 10
-0.2713
 20
2.82475
 30
0.0
 11
-0.4125
 21
2.82475
 31
0.0
  0
LINE
  8
0
  6
CONTINUOUS
 62
     7
  5
284
 10
-0.4125
 20
2.82475
 30
0.0
 11
-0.4125
 21
2.913
 31
0.0
  0
LINE
  8
0
  6
CONTINUOUS
 62
     7
  5
285
 10
-0.4125
 20
2.913
 30
0.0
 11
-0.236
 21
2.913
 31
0.0
  0
LINE
  8
0
  6
CONTINUOUS
 62
     7
  5
286
 10
-3.3012
 20
-2.402
 30
0.0
 11
-0.236
 21
-2.402
 31
0.0
  0
LINE
  8
0
  6
CONTINUOUS
 62
     7
  5
287
 10
-3.3012
 20
-2.559
 30
0.0
 11
-3.3012
 21
-2.402
 31
0.0
  0
LINE
  8
0
  6
CONTINUOUS
 62
     7
  5
288
 10
-4.5981
 20
-2.559
 30
0.0
 11
-4.5981
 21
2.559
 31
0.0
  0
LINE
  8
0
  6
CONTINUOUS
 62
     7
  5
289
 10
-4.5981
 20
-2.559
 30
0.0
 11
-3.3012
 21
-2.559
 31
0.0
  0
LINE
  8
0
  6
CONTINUOUS
 62
     7
  5
28A
 10
-0.236
 20
2.35
 30
0.0
 11
-3.3012
 21
2.35
 31
0.0
  0
LINE
  8
0
  6
CONTINUOUS
 62
     7
  5
28B
 10
-3.3012
 20
2.35
 30
0.0
 11
-3.3012
 21
2.559
 31
0.0
  0
LINE
  8
0
  6
CONTINUOUS
 62
     7
  5
28C
 10
-3.3012
 20
2.559
 30
0.0
 11
-4.5981
 21
2.559
 31
0.0
  0
LINE
  8
0
  6
CONTINUOUS
 62
     7
  5
28D
 10
-4.650456
 20
2.559
 30
0.0
 11
-4.716
 21
2.559
 31
0.0
  0
LINE
  8
0
  6
CONTINUOUS
 62
     7
  5
28E
 10
-4.5981
 20
2.559
 30
0.0
 11
-4.650456
 21
2.559
 31
0.0
  0
LINE
  8
0
  6
CONTINUOUS
 62
     7
  5
28F
 10
-4.706209
 20
-0.272011
 30
0.0
 11
-4.706375
 21
-0.284599
 31
0.0
  0
LINE
  8
0
  6
CONTINUOUS
 62
     7
  5
290
 10
-4.706375
 20
-0.284599
 30
0.0
 11
-4.706569
 21
-0.297125
 31
0.0
  0
LINE
  8
0
  6
CONTINUOUS
 62
     7
  5
291
 10
-4.706569
 20
-0.297125
 30
0.0
 11
-4.706792
 21
-0.309553
 31
0.0
  0
LINE
  8
0
  6
CONTINUOUS
 62
     7
  5
292
 10
-4.706792
 20
-0.309553
 30
0.0
 11
-4.707042
 21
-0.321848
 31
0.0
  0
LINE
  8
0
  6
CONTINUOUS
 62
     7
  5
293
 10
-4.707042
 20
-0.321848
 30
0.0
 11
-4.707317
 21
-0.333973
 31
0.0
  0
LINE
  8
0
  6
CONTINUOUS
 62
     7
  5
294
 10
-4.707317
 20
-0.333973
 30
0.0
 11
-4.707615
 21
-0.345899
 31
0.0
  0
LINE
  8
0
  6
CONTINUOUS
 62
     7
  5
295
 10
-4.707615
 20
-0.345899
 30
0.0
 11
-4.707935
 21
-0.357597
 31
0.0
  0
LINE
  8
0
  6
CONTINUOUS
 62
     7
  5
296
 10
-4.707935
 20
-0.357597
 30
0.0
 11
-4.708272
 21
-0.369038
 31
0.0
  0
LINE
  8
0
  6
CONTINUOUS
 62
     7
  5
297
 10
-4.708272
 20
-0.369038
 30
0.0
 11
-4.708625
 21
-0.380193
 31
0.0
  0
LINE
  8
0
  6
CONTINUOUS
 62
     7
  5
298
 10
-4.708625
 20
-0.380193
 30
0.0
 11
-4.708992
 21
-0.391032
 31
0.0
  0
LINE
  8
0
  6
CONTINUOUS
 62
     7
  5
299
 10
-4.708992
 20
-0.391032
 30
0.0
 11
-4.709368
 21
-0.401529
 31
0.0
  0
LINE
  8
0
  6
CONTINUOUS
 62
     7
  5
29A
 10
-4.709368
 20
-0.401529
 30
0.0
 11
-4.709751
 21
-0.411656
 31
0.0
  0
LINE
  8
0
  6
CONTINUOUS
 62
     7
  5
29B
 10
-4.709751
 20
-0.411656
 30
0.0
 11
-4.710138
 21
-0.421391
 31
0.0
  0
LINE
  8
0
  6
CONTINUOUS
 62
     7
  5
29C
 10
-4.710138
 20
-0.421391
 30
0.0
 11
-4.710526
 21
-0.430715
 31
0.0
  0
LINE
  8
0
  6
CONTINUOUS
 62
     7
  5
29D
 10
-4.710526
 20
-0.430715
 30
0.0
 11
-4.710911
 21
-0.43961
 31
0.0
  0
LINE
  8
0
  6
CONTINUOUS
 62
     7
  5
29E
 10
-4.710911
 20
-0.43961
 30
0.0
 11
-4.711296
 21
-0.448167
 31
0.0
  0
LINE
  8
0
  6
CONTINUOUS
 62
     7
  5
29F
 10
-4.711296
 20
-0.448167
 30
0.0
 11
-4.711684
 21
-0.456478
 31
0.0
  0
LINE
  8
0
  6
CONTINUOUS
 62
     7
  5
2A0
 10
-4.711684
 20
-0.456478
 30
0.0
 11
-4.712071
 21
-0.464506
 31
0.0
  0
LINE
  8
0
  6
CONTINUOUS
 62
     7
  5
2A1
 10
-4.712071
 20
-0.464506
 30
0.0
 11
-4.712454
 21
-0.472216
 31
0.0
  0
LINE
  8
0
  6
CONTINUOUS
 62
     7
  5
2A2
 10
-4.712454
 20
-0.472216
 30
0.0
 11
-4.712831
 21
-0.479577
 31
0.0
  0
LINE
  8
0
  6
CONTINUOUS
 62
     7
  5
2A3
 10
-4.712831
 20
-0.479577
 30
0.0
 11
-4.713197
 21
-0.486558
 31
0.0
  0
LINE
  8
0
  6
CONTINUOUS
 62
     7
  5
2A4
 10
-4.713197
 20
-0.486558
 30
0.0
 11
-4.713551
 21
-0.493132
 31
0.0
  0
LINE
  8
0
  6
CONTINUOUS
 62
     7
  5
2A5
 10
-4.713551
 20
-0.493132
 30
0.0
 11
-4.71389
 21
-0.499276
 31
0.0
  0
LINE
  8
0
  6
CONTINUOUS
 62
     7
  5
2A6
 10
-4.71389
 20
-0.499276
 30
0.0
 11
-4.71421
 21
-0.50497
 31
0.0
  0
LINE
  8
0
  6
CONTINUOUS
 62
     7
  5
2A7
 10
-4.71421
 20
-0.50497
 30
0.0
 11
-4.714509
 21
-0.510195
 31
0.0
  0
LINE
  8
0
  6
CONTINUOUS
 62
     7
  5
2A8
 10
-4.714509
 20
-0.510195
 30
0.0
 11
-4.714785
 21
-0.51494
 31
0.0
  0
LINE
  8
0
  6
CONTINUOUS
 62
     7
  5
2A9
 10
-4.714785
 20
-0.51494
 30
0.0
 11
-4.715036
 21
-0.519192
 31
0.0
  0
LINE
  8
0
  6
CONTINUOUS
 62
     7
  5
2AA
 10
-4.715036
 20
-0.519192
 30
0.0
 11
-4.71526
 21
-0.522944
 31
0.0
  0
LINE
  8
0
  6
CONTINUOUS
 62
     7
  5
2AB
 10
-4.71526
 20
-0.522944
 30
0.0
 11
-4.715457
 21
-0.526187
 31
0.0
  0
LINE
  8
0
  6
CONTINUOUS
 62
     7
  5
2AC
 10
-4.715457
 20
-0.526187
 30
0.0
 11
-4.715623
 21
-0.528918
 31
0.0
  0
LINE
  8
0
  6
CONTINUOUS
 62
     7
  5
2AD
 10
-4.715623
 20
-0.528918
 30
0.0
 11
-4.71576
 21
-0.531137
 31
0.0
  0
LINE
  8
0
  6
CONTINUOUS
 62
     7
  5
2AE
 10
-4.71576
 20
-0.531137
 30
0.0
 11
-4.715866
 21
-0.532846
 31
0.0
  0
LINE
  8
0
  6
CONTINUOUS
 62
     7
  5
2AF
 10
-4.715866
 20
-0.532846
 30
0.0
 11
-4.715941
 21
-0.534052
 31
0.0
  0
LINE
  8
0
  6
CONTINUOUS
 62
     7
  5
2B0
 10
-4.715941
 20
-0.534052
 30
0.0
 11
-4.715985
 21
-0.534766
 31
0.0
  0
LINE
  8
0
  6
CONTINUOUS
 62
     7
  5
2B1
 10
-4.715985
 20
-0.534766
 30
0.0
 11
-4.716
 21
-0.535
 31
0.0
  0
LINE
  8
0
  6
CONTINUOUS
 62
     7
  5
2B2
 10
-4.706209
 20
-0.272011
 30
0.0
 11
-4.705618
 21
-0.223113
 31
0.0
  0
LINE
  8
0
  6
CONTINUOUS
 62
     7
  5
2B3
 10
-4.705618
 20
-0.223113
 30
0.0
 11
-4.70501
 21
-0.17422
 31
0.0
  0
LINE
  8
0
  6
CONTINUOUS
 62
     7
  5
2B4
 10
-4.70501
 20
-0.17422
 30
0.0
 11
-4.704384
 21
-0.125333
 31
0.0
  0
LINE
  8
0
  6
CONTINUOUS
 62
     7
  5
2B5
 10
-4.704384
 20
-0.125333
 30
0.0
 11
-4.703742
 21
-0.076453
 31
0.0
  0
LINE
  8
0
  6
CONTINUOUS
 62
     7
  5
2B6
 10
-4.703742
 20
-0.076453
 30
0.0
 11
-4.703081
 21
-0.027578
 31
0.0
  0
LINE
  8
0
  6
CONTINUOUS
 62
     7
  5
2B7
 10
-4.703081
 20
-0.027578
 30
0.0
 11
-4.702404
 21
0.021291
 31
0.0
  0
LINE
  8
0
  6
CONTINUOUS
 62
     7
  5
2B8
 10
-4.702404
 20
0.021291
 30
0.0
 11
-4.701709
 21
0.070153
 31
0.0
  0
LINE
  8
0
  6
CONTINUOUS
 62
     7
  5
2B9
 10
-4.701709
 20
0.070153
 30
0.0
 11
-4.700997
 21
0.119008
 31
0.0
  0
LINE
  8
0
  6
CONTINUOUS
 62
     7
  5
2BA
 10
-4.700997
 20
0.119008
 30
0.0
 11
-4.700268
 21
0.167856
 31
0.0
  0
LINE
  8
0
  6
CONTINUOUS
 62
     7
  5
2BB
 10
-4.700268
 20
0.167856
 30
0.0
 11
-4.699521
 21
0.216698
 31
0.0
  0
LINE
  8
0
  6
CONTINUOUS
 62
     7
  5
2BC
 10
-4.699521
 20
0.216698
 30
0.0
 11
-4.698757
 21
0.265533
 31
0.0
  0
LINE
  8
0
  6
CONTINUOUS
 62
     7
  5
2BD
 10
-4.698757
 20
0.265533
 30
0.0
 11
-4.697976
 21
0.31436
 31
0.0
  0
LINE
  8
0
  6
CONTINUOUS
 62
     7
  5
2BE
 10
-4.697976
 20
0.31436
 30
0.0
 11
-4.697177
 21
0.363179
 31
0.0
  0
LINE
  8
0
  6
CONTINUOUS
 62
     7
  5
2BF
 10
-4.697177
 20
0.363179
 30
0.0
 11
-4.696362
 21
0.411992
 31
0.0
  0
LINE
  8
0
  6
CONTINUOUS
 62
     7
  5
2C0
 10
-4.696362
 20
0.411992
 30
0.0
 11
-4.695529
 21
0.460796
 31
0.0
  0
LINE
  8
0
  6
CONTINUOUS
 62
     7
  5
2C1
 10
-4.695529
 20
0.460796
 30
0.0
 11
-4.694678
 21
0.509592
 31
0.0
  0
LINE
  8
0
  6
CONTINUOUS
 62
     7
  5
2C2
 10
-4.694678
 20
0.509592
 30
0.0
 11
-4.693811
 21
0.558381
 31
0.0
  0
LINE
  8
0
  6
CONTINUOUS
 62
     7
  5
2C3
 10
-4.693811
 20
0.558381
 30
0.0
 11
-4.692926
 21
0.607161
 31
0.0
  0
LINE
  8
0
  6
CONTINUOUS
 62
     7
  5
2C4
 10
-4.692926
 20
0.607161
 30
0.0
 11
-4.692024
 21
0.655932
 31
0.0
  0
LINE
  8
0
  6
CONTINUOUS
 62
     7
  5
2C5
 10
-4.692024
 20
0.655932
 30
0.0
 11
-4.691105
 21
0.704695
 31
0.0
  0
LINE
  8
0
  6
CONTINUOUS
 62
     7
  5
2C6
 10
-4.691105
 20
0.704695
 30
0.0
 11
-4.690168
 21
0.75345
 31
0.0
  0
LINE
  8
0
  6
CONTINUOUS
 62
     7
  5
2C7
 10
-4.690168
 20
0.75345
 30
0.0
 11
-4.689214
 21
0.802195
 31
0.0
  0
LINE
  8
0
  6
CONTINUOUS
 62
     7
  5
2C8
 10
-4.689214
 20
0.802195
 30
0.0
 11
-4.688243
 21
0.850931
 31
0.0
  0
LINE
  8
0
  6
CONTINUOUS
 62
     7
  5
2C9
 10
-4.688243
 20
0.850931
 30
0.0
 11
-4.687255
 21
0.899658
 31
0.0
  0
LINE
  8
0
  6
CONTINUOUS
 62
     7
  5
2CA
 10
-4.687255
 20
0.899658
 30
0.0
 11
-4.686249
 21
0.948376
 31
0.0
  0
LINE
  8
0
  6
CONTINUOUS
 62
     7
  5
2CB
 10
-4.686249
 20
0.948376
 30
0.0
 11
-4.685227
 21
0.997084
 31
0.0
  0
LINE
  8
0
  6
CONTINUOUS
 62
     7
  5
2CC
 10
-4.685227
 20
0.997084
 30
0.0
 11
-4.684187
 21
1.045783
 31
0.0
  0
LINE
  8
0
  6
CONTINUOUS
 62
     7
  5
2CD
 10
-4.684187
 20
1.045783
 30
0.0
 11
-4.683129
 21
1.094471
 31
0.0
  0
LINE
  8
0
  6
CONTINUOUS
 62
     7
  5
2CE
 10
-4.683129
 20
1.094471
 30
0.0
 11
-4.682055
 21
1.143149
 31
0.0
  0
LINE
  8
0
  6
CONTINUOUS
 62
     7
  5
2CF
 10
-4.682055
 20
1.143149
 30
0.0
 11
-4.680963
 21
1.191818
 31
0.0
  0
LINE
  8
0
  6
CONTINUOUS
 62
     7
  5
2D0
 10
-4.680963
 20
1.191818
 30
0.0
 11
-4.679854
 21
1.240476
 31
0.0
  0
LINE
  8
0
  6
CONTINUOUS
 62
     7
  5
2D1
 10
-4.679854
 20
1.240476
 30
0.0
 11
-4.678728
 21
1.289123
 31
0.0
  0
LINE
  8
0
  6
CONTINUOUS
 62
     7
  5
2D2
 10
-4.678728
 20
1.289123
 30
0.0
 11
-4.677585
 21
1.33776
 31
0.0
  0
LINE
  8
0
  6
CONTINUOUS
 62
     7
  5
2D3
 10
-4.677585
 20
1.33776
 30
0.0
 11
-4.676424
 21
1.386385
 31
0.0
  0
LINE
  8
0
  6
CONTINUOUS
 62
     7
  5
2D4
 10
-4.676424
 20
1.386385
 30
0.0
 11
-4.675246
 21
1.435
 31
0.0
  0
LINE
  8
0
  6
CONTINUOUS
 62
     7
  5
2D5
 10
-4.716
 20
1.435
 30
0.0
 11
-4.675246
 21
1.435
 31
0.0
  0
LINE
  8
0
  6
CONTINUOUS
 62
     7
  5
2D6
 10
-4.675246
 20
1.435
 30
0.0
 11
-4.676424
 21
1.386385
 31
0.0
  0
LINE
  8
0
  6
CONTINUOUS
 62
     7
  5
2D7
 10
-4.676424
 20
1.386385
 30
0.0
 11
-4.677585
 21
1.33776
 31
0.0
  0
LINE
  8
0
  6
CONTINUOUS
 62
     7
  5
2D8
 10
-4.677585
 20
1.33776
 30
0.0
 11
-4.678728
 21
1.289123
 31
0.0
  0
LINE
  8
0
  6
CONTINUOUS
 62
     7
  5
2D9
 10
-4.678728
 20
1.289123
 30
0.0
 11
-4.679854
 21
1.240476
 31
0.0
  0
LINE
  8
0
  6
CONTINUOUS
 62
     7
  5
2DA
 10
-4.679854
 20
1.240476
 30
0.0
 11
-4.680963
 21
1.191818
 31
0.0
  0
LINE
  8
0
  6
CONTINUOUS
 62
     7
  5
2DB
 10
-4.680963
 20
1.191818
 30
0.0
 11
-4.682055
 21
1.143149
 31
0.0
  0
LINE
  8
0
  6
CONTINUOUS
 62
     7
  5
2DC
 10
-4.682055
 20
1.143149
 30
0.0
 11
-4.683129
 21
1.094471
 31
0.0
  0
LINE
  8
0
  6
CONTINUOUS
 62
     7
  5
2DD
 10
-4.683129
 20
1.094471
 30
0.0
 11
-4.684187
 21
1.045783
 31
0.0
  0
LINE
  8
0
  6
CONTINUOUS
 62
     7
  5
2DE
 10
-4.684187
 20
1.045783
 30
0.0
 11
-4.685227
 21
0.997084
 31
0.0
  0
LINE
  8
0
  6
CONTINUOUS
 62
     7
  5
2DF
 10
-4.685227
 20
0.997084
 30
0.0
 11
-4.686249
 21
0.948376
 31
0.0
  0
LINE
  8
0
  6
CONTINUOUS
 62
     7
  5
2E0
 10
-4.686249
 20
0.948376
 30
0.0
 11
-4.687255
 21
0.899658
 31
0.0
  0
LINE
  8
0
  6
CONTINUOUS
 62
     7
  5
2E1
 10
-4.687255
 20
0.899658
 30
0.0
 11
-4.688243
 21
0.850931
 31
0.0
  0
LINE
  8
0
  6
CONTINUOUS
 62
     7
  5
2E2
 10
-4.688243
 20
0.850931
 30
0.0
 11
-4.689214
 21
0.802195
 31
0.0
  0
LINE
  8
0
  6
CONTINUOUS
 62
     7
  5
2E3
 10
-4.689214
 20
0.802195
 30
0.0
 11
-4.690168
 21
0.75345
 31
0.0
  0
LINE
  8
0
  6
CONTINUOUS
 62
     7
  5
2E4
 10
-4.690168
 20
0.75345
 30
0.0
 11
-4.691105
 21
0.704695
 31
0.0
  0
LINE
  8
0
  6
CONTINUOUS
 62
     7
  5
2E5
 10
-4.691105
 20
0.704695
 30
0.0
 11
-4.692024
 21
0.655932
 31
0.0
  0
LINE
  8
0
  6
CONTINUOUS
 62
     7
  5
2E6
 10
-4.692024
 20
0.655932
 30
0.0
 11
-4.692926
 21
0.607161
 31
0.0
  0
LINE
  8
0
  6
CONTINUOUS
 62
     7
  5
2E7
 10
-4.692926
 20
0.607161
 30
0.0
 11
-4.693811
 21
0.558381
 31
0.0
  0
LINE
  8
0
  6
CONTINUOUS
 62
     7
  5
2E8
 10
-4.693811
 20
0.558381
 30
0.0
 11
-4.694678
 21
0.509592
 31
0.0
  0
LINE
  8
0
  6
CONTINUOUS
 62
     7
  5
2E9
 10
-4.694678
 20
0.509592
 30
0.0
 11
-4.695529
 21
0.460796
 31
0.0
  0
LINE
  8
0
  6
CONTINUOUS
 62
     7
  5
2EA
 10
-4.695529
 20
0.460796
 30
0.0
 11
-4.696362
 21
0.411992
 31
0.0
  0
LINE
  8
0
  6
CONTINUOUS
 62
     7
  5
2EB
 10
-4.696362
 20
0.411992
 30
0.0
 11
-4.697177
 21
0.363179
 31
0.0
  0
LINE
  8
0
  6
CONTINUOUS
 62
     7
  5
2EC
 10
-4.697177
 20
0.363179
 30
0.0
 11
-4.697976
 21
0.31436
 31
0.0
  0
LINE
  8
0
  6
CONTINUOUS
 62
     7
  5
2ED
 10
-4.697976
 20
0.31436
 30
0.0
 11
-4.698757
 21
0.265533
 31
0.0
  0
LINE
  8
0
  6
CONTINUOUS
 62
     7
  5
2EE
 10
-4.698757
 20
0.265533
 30
0.0
 11
-4.699521
 21
0.216698
 31
0.0
  0
LINE
  8
0
  6
CONTINUOUS
 62
     7
  5
2EF
 10
-4.699521
 20
0.216698
 30
0.0
 11
-4.700268
 21
0.167856
 31
0.0
  0
LINE
  8
0
  6
CONTINUOUS
 62
     7
  5
2F0
 10
-4.700268
 20
0.167856
 30
0.0
 11
-4.700997
 21
0.119008
 31
0.0
  0
LINE
  8
0
  6
CONTINUOUS
 62
     7
  5
2F1
 10
-4.700997
 20
0.119008
 30
0.0
 11
-4.701709
 21
0.070153
 31
0.0
  0
LINE
  8
0
  6
CONTINUOUS
 62
     7
  5
2F2
 10
-4.701709
 20
0.070153
 30
0.0
 11
-4.702404
 21
0.021291
 31
0.0
  0
LINE
  8
0
  6
CONTINUOUS
 62
     7
  5
2F3
 10
-4.702404
 20
0.021291
 30
0.0
 11
-4.703081
 21
-0.027578
 31
0.0
  0
LINE
  8
0
  6
CONTINUOUS
 62
     7
  5
2F4
 10
-4.703081
 20
-0.027578
 30
0.0
 11
-4.703742
 21
-0.076453
 31
0.0
  0
LINE
  8
0
  6
CONTINUOUS
 62
     7
  5
2F5
 10
-4.703742
 20
-0.076453
 30
0.0
 11
-4.704384
 21
-0.125333
 31
0.0
  0
LINE
  8
0
  6
CONTINUOUS
 62
     7
  5
2F6
 10
-4.704384
 20
-0.125333
 30
0.0
 11
-4.70501
 21
-0.17422
 31
0.0
  0
LINE
  8
0
  6
CONTINUOUS
 62
     7
  5
2F7
 10
-4.70501
 20
-0.17422
 30
0.0
 11
-4.705618
 21
-0.223113
 31
0.0
  0
LINE
  8
0
  6
CONTINUOUS
 62
     7
  5
2F8
 10
-4.705618
 20
-0.223113
 30
0.0
 11
-4.706209
 21
-0.272011
 31
0.0
  0
LINE
  8
0
  6
CONTINUOUS
 62
     7
  5
2F9
 10
-4.694813
 20
-2.11568
 30
0.0
 11
-4.69432
 21
-2.115797
 31
0.0
  0
LINE
  8
0
  6
CONTINUOUS
 62
     7
  5
2FA
 10
-4.69432
 20
-2.115797
 30
0.0
 11
-4.693816
 21
-2.116155
 31
0.0
  0
LINE
  8
0
  6
CONTINUOUS
 62
     7
  5
2FB
 10
-4.693816
 20
-2.116155
 30
0.0
 11
-4.693302
 21
-2.11676
 31
0.0
  0
LINE
  8
0
  6
CONTINUOUS
 62
     7
  5
2FC
 10
-4.693302
 20
-2.11676
 30
0.0
 11
-4.69278
 21
-2.117617
 31
0.0
  0
LINE
  8
0
  6
CONTINUOUS
 62
     7
  5
2FD
 10
-4.69278
 20
-2.117617
 30
0.0
 11
-4.692253
 21
-2.118731
 31
0.0
  0
LINE
  8
0
  6
CONTINUOUS
 62
     7
  5
2FE
 10
-4.692253
 20
-2.118731
 30
0.0
 11
-4.691723
 21
-2.1201
 31
0.0
  0
LINE
  8
0
  6
CONTINUOUS
 62
     7
  5
2FF
 10
-4.691723
 20
-2.1201
 30
0.0
 11
-4.691191
 21
-2.121723
 31
0.0
  0
LINE
  8
0
  6
CONTINUOUS
 62
     7
  5
300
 10
-4.691191
 20
-2.121723
 30
0.0
 11
-4.690661
 21
-2.123597
 31
0.0
  0
LINE
  8
0
  6
CONTINUOUS
 62
     7
  5
301
 10
-4.690661
 20
-2.123597
 30
0.0
 11
-4.690133
 21
-2.125716
 31
0.0
  0
LINE
  8
0
  6
CONTINUOUS
 62
     7
  5
302
 10
-4.690133
 20
-2.125716
 30
0.0
 11
-4.68961
 21
-2.128075
 31
0.0
  0
LINE
  8
0
  6
CONTINUOUS
 62
     7
  5
303
 10
-4.68961
 20
-2.128075
 30
0.0
 11
-4.689094
 21
-2.130664
 31
0.0
  0
LINE
  8
0
  6
CONTINUOUS
 62
     7
  5
304
 10
-4.689094
 20
-2.130664
 30
0.0
 11
-4.688587
 21
-2.133474
 31
0.0
  0
LINE
  8
0
  6
CONTINUOUS
 62
     7
  5
305
 10
-4.688587
 20
-2.133474
 30
0.0
 11
-4.688092
 21
-2.136491
 31
0.0
  0
LINE
  8
0
  6
CONTINUOUS
 62
     7
  5
306
 10
-4.688092
 20
-2.136491
 30
0.0
 11
-4.68761
 21
-2.139702
 31
0.0
  0
LINE
  8
0
  6
CONTINUOUS
 62
     7
  5
307
 10
-4.68761
 20
-2.139702
 30
0.0
 11
-4.687142
 21
-2.143089
 31
0.0
  0
LINE
  8
0
  6
CONTINUOUS
 62
     7
  5
308
 10
-4.687142
 20
-2.143089
 30
0.0
 11
-4.686693
 21
-2.146634
 31
0.0
  0
LINE
  8
0
  6
CONTINUOUS
 62
     7
  5
309
 10
-4.686693
 20
-2.146634
 30
0.0
 11
-4.686261
 21
-2.150318
 31
0.0
  0
LINE
  8
0
  6
CONTINUOUS
 62
     7
  5
30A
 10
-4.686261
 20
-2.150318
 30
0.0
 11
-4.685849
 21
-2.154132
 31
0.0
  0
LINE
  8
0
  6
CONTINUOUS
 62
     7
  5
30B
 10
-4.685849
 20
-2.154132
 30
0.0
 11
-4.685449
 21
-2.158149
 31
0.0
  0
LINE
  8
0
  6
CONTINUOUS
 62
     7
  5
30C
 10
-4.685449
 20
-2.158149
 30
0.0
 11
-4.685061
 21
-2.162376
 31
0.0
  0
LINE
  8
0
  6
CONTINUOUS
 62
     7
  5
30D
 10
-4.685061
 20
-2.162376
 30
0.0
 11
-4.684687
 21
-2.166804
 31
0.0
  0
LINE
  8
0
  6
CONTINUOUS
 62
     7
  5
30E
 10
-4.684687
 20
-2.166804
 30
0.0
 11
-4.68433
 21
-2.171418
 31
0.0
  0
LINE
  8
0
  6
CONTINUOUS
 62
     7
  5
30F
 10
-4.68433
 20
-2.171418
 30
0.0
 11
-4.683993
 21
-2.176204
 31
0.0
  0
LINE
  8
0
  6
CONTINUOUS
 62
     7
  5
310
 10
-4.683993
 20
-2.176204
 30
0.0
 11
-4.683678
 21
-2.181146
 31
0.0
  0
LINE
  8
0
  6
CONTINUOUS
 62
     7
  5
311
 10
-4.683678
 20
-2.181146
 30
0.0
 11
-4.683385
 21
-2.186228
 31
0.0
  0
LINE
  8
0
  6
CONTINUOUS
 62
     7
  5
312
 10
-4.683385
 20
-2.186228
 30
0.0
 11
-4.683117
 21
-2.191432
 31
0.0
  0
LINE
  8
0
  6
CONTINUOUS
 62
     7
  5
313
 10
-4.683117
 20
-2.191432
 30
0.0
 11
-4.682876
 21
-2.196741
 31
0.0
  0
LINE
  8
0
  6
CONTINUOUS
 62
     7
  5
314
 10
-4.682876
 20
-2.196741
 30
0.0
 11
-4.682661
 21
-2.202139
 31
0.0
  0
LINE
  8
0
  6
CONTINUOUS
 62
     7
  5
315
 10
-4.682661
 20
-2.202139
 30
0.0
 11
-4.682475
 21
-2.207607
 31
0.0
  0
LINE
  8
0
  6
CONTINUOUS
 62
     7
  5
316
 10
-4.682475
 20
-2.207607
 30
0.0
 11
-4.682317
 21
-2.213124
 31
0.0
  0
LINE
  8
0
  6
CONTINUOUS
 62
     7
  5
317
 10
-4.682317
 20
-2.213124
 30
0.0
 11
-4.682189
 21
-2.21867
 31
0.0
  0
LINE
  8
0
  6
CONTINUOUS
 62
     7
  5
318
 10
-4.682189
 20
-2.21867
 30
0.0
 11
-4.68209
 21
-2.22422
 31
0.0
  0
LINE
  8
0
  6
CONTINUOUS
 62
     7
  5
319
 10
-4.68209
 20
-2.22422
 30
0.0
 11
-4.682019
 21
-2.229754
 31
0.0
  0
LINE
  8
0
  6
CONTINUOUS
 62
     7
  5
31A
 10
-4.682019
 20
-2.229754
 30
0.0
 11
-4.681978
 21
-2.235247
 31
0.0
  0
LINE
  8
0
  6
CONTINUOUS
 62
     7
  5
31B
 10
-4.681978
 20
-2.235247
 30
0.0
 11
-4.681964
 21
-2.24068
 31
0.0
  0
LINE
  8
0
  6
CONTINUOUS
 62
     7
  5
31C
 10
-4.694813
 20
-2.36568
 30
0.0
 11
-4.695786
 21
-2.365206
 31
0.0
  0
LINE
  8
0
  6
CONTINUOUS
 62
     7
  5
31D
 10
-4.695786
 20
-2.365206
 30
0.0
 11
-4.696751
 21
-2.363745
 31
0.0
  0
LINE
  8
0
  6
CONTINUOUS
 62
     7
  5
31E
 10
-4.696751
 20
-2.363745
 30
0.0
 11
-4.697691
 21
-2.361263
 31
0.0
  0
LINE
  8
0
  6
CONTINUOUS
 62
     7
  5
31F
 10
-4.697691
 20
-2.361263
 30
0.0
 11
-4.698591
 21
-2.357766
 31
0.0
  0
LINE
  8
0
  6
CONTINUOUS
 62
     7
  5
320
 10
-4.698591
 20
-2.357766
 30
0.0
 11
-4.699442
 21
-2.353287
 31
0.0
  0
LINE
  8
0
  6
CONTINUOUS
 62
     7
  5
321
 10
-4.699442
 20
-2.353287
 30
0.0
 11
-4.700234
 21
-2.347886
 31
0.0
  0
LINE
  8
0
  6
CONTINUOUS
 62
     7
  5
322
 10
-4.700234
 20
-2.347886
 30
0.0
 11
-4.700959
 21
-2.341653
 31
0.0
  0
LINE
  8
0
  6
CONTINUOUS
 62
     7
  5
323
 10
-4.700959
 20
-2.341653
 30
0.0
 11
-4.701613
 21
-2.334716
 31
0.0
  0
LINE
  8
0
  6
CONTINUOUS
 62
     7
  5
324
 10
-4.701613
 20
-2.334716
 30
0.0
 11
-4.702193
 21
-2.327213
 31
0.0
  0
LINE
  8
0
  6
CONTINUOUS
 62
     7
  5
325
 10
-4.702193
 20
-2.327213
 30
0.0
 11
-4.702717
 21
-2.318963
 31
0.0
  0
LINE
  8
0
  6
CONTINUOUS
 62
     7
  5
326
 10
-4.702717
 20
-2.318963
 30
0.0
 11
-4.703187
 21
-2.309917
 31
0.0
  0
LINE
  8
0
  6
CONTINUOUS
 62
     7
  5
327
 10
-4.703187
 20
-2.309917
 30
0.0
 11
-4.703595
 21
-2.300186
 31
0.0
  0
LINE
  8
0
  6
CONTINUOUS
 62
     7
  5
328
 10
-4.703595
 20
-2.300186
 30
0.0
 11
-4.703937
 21
-2.2899
 31
0.0
  0
LINE
  8
0
  6
CONTINUOUS
 62
     7
  5
329
 10
-4.703937
 20
-2.2899
 30
0.0
 11
-4.70421
 21
-2.279195
 31
0.0
  0
LINE
  8
0
  6
CONTINUOUS
 62
     7
  5
32A
 10
-4.70421
 20
-2.279195
 30
0.0
 11
-4.704412
 21
-2.268215
 31
0.0
  0
LINE
  8
0
  6
CONTINUOUS
 62
     7
  5
32B
 10
-4.704412
 20
-2.268215
 30
0.0
 11
-4.704545
 21
-2.257126
 31
0.0
  0
LINE
  8
0
  6
CONTINUOUS
 62
     7
  5
32C
 10
-4.704545
 20
-2.257126
 30
0.0
 11
-4.704609
 21
-2.246108
 31
0.0
  0
LINE
  8
0
  6
CONTINUOUS
 62
     7
  5
32D
 10
-4.704609
 20
-2.246108
 30
0.0
 11
-4.704609
 21
-2.235252
 31
0.0
  0
LINE
  8
0
  6
CONTINUOUS
 62
     7
  5
32E
 10
-4.704609
 20
-2.235252
 30
0.0
 11
-4.704545
 21
-2.224234
 31
0.0
  0
LINE
  8
0
  6
CONTINUOUS
 62
     7
  5
32F
 10
-4.704545
 20
-2.224234
 30
0.0
 11
-4.704412
 21
-2.213145
 31
0.0
  0
LINE
  8
0
  6
CONTINUOUS
 62
     7
  5
330
 10
-4.704412
 20
-2.213145
 30
0.0
 11
-4.70421
 21
-2.202165
 31
0.0
  0
LINE
  8
0
  6
CONTINUOUS
 62
     7
  5
331
 10
-4.70421
 20
-2.202165
 30
0.0
 11
-4.703937
 21
-2.19146
 31
0.0
  0
LINE
  8
0
  6
CONTINUOUS
 62
     7
  5
332
 10
-4.703937
 20
-2.19146
 30
0.0
 11
-4.703595
 21
-2.181174
 31
0.0
  0
LINE
  8
0
  6
CONTINUOUS
 62
     7
  5
333
 10
-4.703595
 20
-2.181174
 30
0.0
 11
-4.703187
 21
-2.171443
 31
0.0
  0
LINE
  8
0
  6
CONTINUOUS
 62
     7
  5
334
 10
-4.703187
 20
-2.171443
 30
0.0
 11
-4.702717
 21
-2.162397
 31
0.0
  0
LINE
  8
0
  6
CONTINUOUS
 62
     7
  5
335
 10
-4.702717
 20
-2.162397
 30
0.0
 11
-4.702193
 21
-2.154147
 31
0.0
  0
LINE
  8
0
  6
CONTINUOUS
 62
     7
  5
336
 10
-4.702193
 20
-2.154147
 30
0.0
 11
-4.701613
 21
-2.146644
 31
0.0
  0
LINE
  8
0
  6
CONTINUOUS
 62
     7
  5
337
 10
-4.701613
 20
-2.146644
 30
0.0
 11
-4.700959
 21
-2.139707
 31
0.0
  0
LINE
  8
0
  6
CONTINUOUS
 62
     7
  5
338
 10
-4.700959
 20
-2.139707
 30
0.0
 11
-4.700234
 21
-2.133474
 31
0.0
  0
LINE
  8
0
  6
CONTINUOUS
 62
     7
  5
339
 10
-4.700234
 20
-2.133474
 30
0.0
 11
-4.699442
 21
-2.128073
 31
0.0
  0
LINE
  8
0
  6
CONTINUOUS
 62
     7
  5
33A
 10
-4.699442
 20
-2.128073
 30
0.0
 11
-4.698591
 21
-2.123594
 31
0.0
  0
LINE
  8
0
  6
CONTINUOUS
 62
     7
  5
33B
 10
-4.698591
 20
-2.123594
 30
0.0
 11
-4.697691
 21
-2.120097
 31
0.0
  0
LINE
  8
0
  6
CONTINUOUS
 62
     7
  5
33C
 10
-4.697691
 20
-2.120097
 30
0.0
 11
-4.696751
 21
-2.117615
 31
0.0
  0
LINE
  8
0
  6
CONTINUOUS
 62
     7
  5
33D
 10
-4.696751
 20
-2.117615
 30
0.0
 11
-4.695786
 21
-2.116154
 31
0.0
  0
LINE
  8
0
  6
CONTINUOUS
 62
     7
  5
33E
 10
-4.695786
 20
-2.116154
 30
0.0
 11
-4.694813
 21
-2.11568
 31
0.0
  0
LINE
  8
0
  6
CONTINUOUS
 62
     7
  5
33F
 10
-4.681964
 20
-2.24068
 30
0.0
 11
-4.681978
 21
-2.246113
 31
0.0
  0
LINE
  8
0
  6
CONTINUOUS
 62
     7
  5
340
 10
-4.681978
 20
-2.246113
 30
0.0
 11
-4.682019
 21
-2.251606
 31
0.0
  0
LINE
  8
0
  6
CONTINUOUS
 62
     7
  5
341
 10
-4.682019
 20
-2.251606
 30
0.0
 11
-4.68209
 21
-2.25714
 31
0.0
  0
LINE
  8
0
  6
CONTINUOUS
 62
     7
  5
342
 10
-4.68209
 20
-2.25714
 30
0.0
 11
-4.682189
 21
-2.26269
 31
0.0
  0
LINE
  8
0
  6
CONTINUOUS
 62
     7
  5
343
 10
-4.682189
 20
-2.26269
 30
0.0
 11
-4.682317
 21
-2.268236
 31
0.0
  0
LINE
  8
0
  6
CONTINUOUS
 62
     7
  5
344
 10
-4.682317
 20
-2.268236
 30
0.0
 11
-4.682475
 21
-2.273753
 31
0.0
  0
LINE
  8
0
  6
CONTINUOUS
 62
     7
  5
345
 10
-4.682475
 20
-2.273753
 30
0.0
 11
-4.682661
 21
-2.279221
 31
0.0
  0
LINE
  8
0
  6
CONTINUOUS
 62
     7
  5
346
 10
-4.682661
 20
-2.279221
 30
0.0
 11
-4.682876
 21
-2.284619
 31
0.0
  0
LINE
  8
0
  6
CONTINUOUS
 62
     7
  5
347
 10
-4.682876
 20
-2.284619
 30
0.0
 11
-4.683117
 21
-2.289928
 31
0.0
  0
LINE
  8
0
  6
CONTINUOUS
 62
     7
  5
348
 10
-4.683117
 20
-2.289928
 30
0.0
 11
-4.683385
 21
-2.295132
 31
0.0
  0
LINE
  8
0
  6
CONTINUOUS
 62
     7
  5
349
 10
-4.683385
 20
-2.295132
 30
0.0
 11
-4.683678
 21
-2.300214
 31
0.0
  0
LINE
  8
0
  6
CONTINUOUS
 62
     7
  5
34A
 10
-4.683678
 20
-2.300214
 30
0.0
 11
-4.683993
 21
-2.305156
 31
0.0
  0
LINE
  8
0
  6
CONTINUOUS
 62
     7
  5
34B
 10
-4.683993
 20
-2.305156
 30
0.0
 11
-4.68433
 21
-2.309942
 31
0.0
  0
LINE
  8
0
  6
CONTINUOUS
 62
     7
  5
34C
 10
-4.68433
 20
-2.309942
 30
0.0
 11
-4.684687
 21
-2.314556
 31
0.0
  0
LINE
  8
0
  6
CONTINUOUS
 62
     7
  5
34D
 10
-4.684687
 20
-2.314556
 30
0.0
 11
-4.685061
 21
-2.318984
 31
0.0
  0
LINE
  8
0
  6
CONTINUOUS
 62
     7
  5
34E
 10
-4.685061
 20
-2.318984
 30
0.0
 11
-4.685449
 21
-2.323211
 31
0.0
  0
LINE
  8
0
  6
CONTINUOUS
 62
     7
  5
34F
 10
-4.685449
 20
-2.323211
 30
0.0
 11
-4.685849
 21
-2.327228
 31
0.0
  0
LINE
  8
0
  6
CONTINUOUS
 62
     7
  5
350
 10
-4.685849
 20
-2.327228
 30
0.0
 11
-4.686261
 21
-2.331042
 31
0.0
  0
LINE
  8
0
  6
CONTINUOUS
 62
     7
  5
351
 10
-4.686261
 20
-2.331042
 30
0.0
 11
-4.686693
 21
-2.334726
 31
0.0
  0
LINE
  8
0
  6
CONTINUOUS
 62
     7
  5
352
 10
-4.686693
 20
-2.334726
 30
0.0
 11
-4.687142
 21
-2.338271
 31
0.0
  0
LINE
  8
0
  6
CONTINUOUS
 62
     7
  5
353
 10
-4.687142
 20
-2.338271
 30
0.0
 11
-4.68761
 21
-2.341658
 31
0.0
  0
LINE
  8
0
  6
CONTINUOUS
 62
     7
  5
354
 10
-4.68761
 20
-2.341658
 30
0.0
 11
-4.688092
 21
-2.344869
 31
0.0
  0
LINE
  8
0
  6
CONTINUOUS
 62
     7
  5
355
 10
-4.688092
 20
-2.344869
 30
0.0
 11
-4.688587
 21
-2.347886
 31
0.0
  0
LINE
  8
0
  6
CONTINUOUS
 62
     7
  5
356
 10
-4.688587
 20
-2.347886
 30
0.0
 11
-4.689094
 21
-2.350696
 31
0.0
  0
LINE
  8
0
  6
CONTINUOUS
 62
     7
  5
357
 10
-4.689094
 20
-2.350696
 30
0.0
 11
-4.68961
 21
-2.353285
 31
0.0
  0
LINE
  8
0
  6
CONTINUOUS
 62
     7
  5
358
 10
-4.68961
 20
-2.353285
 30
0.0
 11
-4.690133
 21
-2.355644
 31
0.0
  0
LINE
  8
0
  6
CONTINUOUS
 62
     7
  5
359
 10
-4.690133
 20
-2.355644
 30
0.0
 11
-4.690661
 21
-2.357763
 31
0.0
  0
LINE
  8
0
  6
CONTINUOUS
 62
     7
  5
35A
 10
-4.690661
 20
-2.357763
 30
0.0
 11
-4.691191
 21
-2.359637
 31
0.0
  0
LINE
  8
0
  6
CONTINUOUS
 62
     7
  5
35B
 10
-4.691191
 20
-2.359637
 30
0.0
 11
-4.691723
 21
-2.36126
 31
0.0
  0
LINE
  8
0
  6
CONTINUOUS
 62
     7
  5
35C
 10
-4.691723
 20
-2.36126
 30
0.0
 11
-4.692253
 21
-2.362629
 31
0.0
  0
LINE
  8
0
  6
CONTINUOUS
 62
     7
  5
35D
 10
-4.692253
 20
-2.362629
 30
0.0
 11
-4.69278
 21
-2.363743
 31
0.0
  0
LINE
  8
0
  6
CONTINUOUS
 62
     7
  5
35E
 10
-4.69278
 20
-2.363743
 30
0.0
 11
-4.693302
 21
-2.3646
 31
0.0
  0
LINE
  8
0
  6
CONTINUOUS
 62
     7
  5
35F
 10
-4.693302
 20
-2.3646
 30
0.0
 11
-4.693816
 21
-2.365205
 31
0.0
  0
LINE
  8
0
  6
CONTINUOUS
 62
     7
  5
360
 10
-4.693816
 20
-2.365205
 30
0.0
 11
-4.69432
 21
-2.365563
 31
0.0
  0
LINE
  8
0
  6
CONTINUOUS
 62
     7
  5
361
 10
-4.69432
 20
-2.365563
 30
0.0
 11
-4.694813
 21
-2.36568
 31
0.0
  0
LINE
  8
0
  6
CONTINUOUS
 62
     7
  5
362
 10
-4.71365
 20
-2.11568
 30
0.0
 11
-4.713484
 21
-2.115798
 31
0.0
  0
LINE
  8
0
  6
CONTINUOUS
 62
     7
  5
363
 10
-4.713484
 20
-2.115798
 30
0.0
 11
-4.713311
 21
-2.116156
 31
0.0
  0
LINE
  8
0
  6
CONTINUOUS
 62
     7
  5
364
 10
-4.713311
 20
-2.116156
 30
0.0
 11
-4.71313
 21
-2.116763
 31
0.0
  0
LINE
  8
0
  6
CONTINUOUS
 62
     7
  5
365
 10
-4.71313
 20
-2.116763
 30
0.0
 11
-4.712943
 21
-2.117623
 31
0.0
  0
LINE
  8
0
  6
CONTINUOUS
 62
     7
  5
366
 10
-4.712943
 20
-2.117623
 30
0.0
 11
-4.71275
 21
-2.11874
 31
0.0
  0
LINE
  8
0
  6
CONTINUOUS
 62
     7
  5
367
 10
-4.71275
 20
-2.11874
 30
0.0
 11
-4.712553
 21
-2.120113
 31
0.0
  0
LINE
  8
0
  6
CONTINUOUS
 62
     7
  5
368
 10
-4.712553
 20
-2.120113
 30
0.0
 11
-4.712351
 21
-2.121742
 31
0.0
  0
LINE
  8
0
  6
CONTINUOUS
 62
     7
  5
369
 10
-4.712351
 20
-2.121742
 30
0.0
 11
-4.712146
 21
-2.123621
 31
0.0
  0
LINE
  8
0
  6
CONTINUOUS
 62
     7
  5
36A
 10
-4.712146
 20
-2.123621
 30
0.0
 11
-4.711939
 21
-2.125746
 31
0.0
  0
LINE
  8
0
  6
CONTINUOUS
 62
     7
  5
36B
 10
-4.711939
 20
-2.125746
 30
0.0
 11
-4.711731
 21
-2.128111
 31
0.0
  0
LINE
  8
0
  6
CONTINUOUS
 62
     7
  5
36C
 10
-4.711731
 20
-2.128111
 30
0.0
 11
-4.711522
 21
-2.130707
 31
0.0
  0
LINE
  8
0
  6
CONTINUOUS
 62
     7
  5
36D
 10
-4.711522
 20
-2.130707
 30
0.0
 11
-4.711315
 21
-2.133523
 31
0.0
  0
LINE
  8
0
  6
CONTINUOUS
 62
     7
  5
36E
 10
-4.711315
 20
-2.133523
 30
0.0
 11
-4.711109
 21
-2.136547
 31
0.0
  0
LINE
  8
0
  6
CONTINUOUS
 62
     7
  5
36F
 10
-4.711109
 20
-2.136547
 30
0.0
 11
-4.710907
 21
-2.139763
 31
0.0
  0
LINE
  8
0
  6
CONTINUOUS
 62
     7
  5
370
 10
-4.710907
 20
-2.139763
 30
0.0
 11
-4.710708
 21
-2.143155
 31
0.0
  0
LINE
  8
0
  6
CONTINUOUS
 62
     7
  5
371
 10
-4.710708
 20
-2.143155
 30
0.0
 11
-4.710515
 21
-2.146705
 31
0.0
  0
LINE
  8
0
  6
CONTINUOUS
 62
     7
  5
372
 10
-4.710515
 20
-2.146705
 30
0.0
 11
-4.710329
 21
-2.150392
 31
0.0
  0
LINE
  8
0
  6
CONTINUOUS
 62
     7
  5
373
 10
-4.710329
 20
-2.150392
 30
0.0
 11
-4.710149
 21
-2.15421
 31
0.0
  0
LINE
  8
0
  6
CONTINUOUS
 62
     7
  5
374
 10
-4.710149
 20
-2.15421
 30
0.0
 11
-4.709972
 21
-2.158232
 31
0.0
  0
LINE
  8
0
  6
CONTINUOUS
 62
     7
  5
375
 10
-4.709972
 20
-2.158232
 30
0.0
 11
-4.7098
 21
-2.162463
 31
0.0
  0
LINE
  8
0
  6
CONTINUOUS
 62
     7
  5
376
 10
-4.7098
 20
-2.162463
 30
0.0
 11
-4.709633
 21
-2.166893
 31
0.0
  0
LINE
  8
0
  6
CONTINUOUS
 62
     7
  5
377
 10
-4.709633
 20
-2.166893
 30
0.0
 11
-4.709473
 21
-2.171508
 31
0.0
  0
LINE
  8
0
  6
CONTINUOUS
 62
     7
  5
378
 10
-4.709473
 20
-2.171508
 30
0.0
 11
-4.70932
 21
-2.176294
 31
0.0
  0
LINE
  8
0
  6
CONTINUOUS
 62
     7
  5
379
 10
-4.70932
 20
-2.176294
 30
0.0
 11
-4.709176
 21
-2.181235
 31
0.0
  0
LINE
  8
0
  6
CONTINUOUS
 62
     7
  5
37A
 10
-4.709176
 20
-2.181235
 30
0.0
 11
-4.709042
 21
-2.186314
 31
0.0
  0
LINE
  8
0
  6
CONTINUOUS
 62
     7
  5
37B
 10
-4.709042
 20
-2.186314
 30
0.0
 11
-4.708919
 21
-2.191513
 31
0.0
  0
LINE
  8
0
  6
CONTINUOUS
 62
     7
  5
37C
 10
-4.708919
 20
-2.191513
 30
0.0
 11
-4.708807
 21
-2.196818
 31
0.0
  0
LINE
  8
0
  6
CONTINUOUS
 62
     7
  5
37D
 10
-4.708807
 20
-2.196818
 30
0.0
 11
-4.708708
 21
-2.202209
 31
0.0
  0
LINE
  8
0
  6
CONTINUOUS
 62
     7
  5
37E
 10
-4.708708
 20
-2.202209
 30
0.0
 11
-4.708621
 21
-2.207669
 31
0.0
  0
LINE
  8
0
  6
CONTINUOUS
 62
     7
  5
37F
 10
-4.708621
 20
-2.207669
 30
0.0
 11
-4.708548
 21
-2.213178
 31
0.0
  0
LINE
  8
0
  6
CONTINUOUS
 62
     7
  5
380
 10
-4.708548
 20
-2.213178
 30
0.0
 11
-4.708488
 21
-2.218713
 31
0.0
  0
LINE
  8
0
  6
CONTINUOUS
 62
     7
  5
381
 10
-4.708488
 20
-2.218713
 30
0.0
 11
-4.708441
 21
-2.224254
 31
0.0
  0
LINE
  8
0
  6
CONTINUOUS
 62
     7
  5
382
 10
-4.708441
 20
-2.224254
 30
0.0
 11
-4.708408
 21
-2.229776
 31
0.0
  0
LINE
  8
0
  6
CONTINUOUS
 62
     7
  5
383
 10
-4.708408
 20
-2.229776
 30
0.0
 11
-4.708389
 21
-2.235259
 31
0.0
  0
LINE
  8
0
  6
CONTINUOUS
 62
     7
  5
384
 10
-4.708389
 20
-2.235259
 30
0.0
 11
-4.708383
 21
-2.24068
 31
0.0
  0
LINE
  8
0
  6
CONTINUOUS
 62
     7
  5
385
 10
-4.71365
 20
-2.36568
 30
0.0
 11
-4.713967
 21
-2.365204
 31
0.0
  0
LINE
  8
0
  6
CONTINUOUS
 62
     7
  5
386
 10
-4.713967
 20
-2.365204
 30
0.0
 11
-4.714264
 21
-2.363737
 31
0.0
  0
LINE
  8
0
  6
CONTINUOUS
 62
     7
  5
387
 10
-4.714264
 20
-2.363737
 30
0.0
 11
-4.714538
 21
-2.361248
 31
0.0
  0
LINE
  8
0
  6
CONTINUOUS
 62
     7
  5
388
 10
-4.714538
 20
-2.361248
 30
0.0
 11
-4.714784
 21
-2.35774
 31
0.0
  0
LINE
  8
0
  6
CONTINUOUS
 62
     7
  5
389
 10
-4.714784
 20
-2.35774
 30
0.0
 11
-4.715001
 21
-2.35325
 31
0.0
  0
LINE
  8
0
  6
CONTINUOUS
 62
     7
  5
38A
 10
-4.715001
 20
-2.35325
 30
0.0
 11
-4.715187
 21
-2.347837
 31
0.0
  0
LINE
  8
0
  6
CONTINUOUS
 62
     7
  5
38B
 10
-4.715187
 20
-2.347837
 30
0.0
 11
-4.715345
 21
-2.341595
 31
0.0
  0
LINE
  8
0
  6
CONTINUOUS
 62
     7
  5
38C
 10
-4.715345
 20
-2.341595
 30
0.0
 11
-4.715476
 21
-2.334652
 31
0.0
  0
LINE
  8
0
  6
CONTINUOUS
 62
     7
  5
38D
 10
-4.715476
 20
-2.334652
 30
0.0
 11
-4.715581
 21
-2.327145
 31
0.0
  0
LINE
  8
0
  6
CONTINUOUS
 62
     7
  5
38E
 10
-4.715581
 20
-2.327145
 30
0.0
 11
-4.715668
 21
-2.31889
 31
0.0
  0
LINE
  8
0
  6
CONTINUOUS
 62
     7
  5
38F
 10
-4.715668
 20
-2.31889
 30
0.0
 11
-4.715739
 21
-2.309843
 31
0.0
  0
LINE
  8
0
  6
CONTINUOUS
 62
     7
  5
390
 10
-4.715739
 20
-2.309843
 30
0.0
 11
-4.715794
 21
-2.300116
 31
0.0
  0
LINE
  8
0
  6
CONTINUOUS
 62
     7
  5
391
 10
-4.715794
 20
-2.300116
 30
0.0
 11
-4.715836
 21
-2.289837
 31
0.0
  0
LINE
  8
0
  6
CONTINUOUS
 62
     7
  5
392
 10
-4.715836
 20
-2.289837
 30
0.0
 11
-4.715866
 21
-2.279143
 31
0.0
  0
LINE
  8
0
  6
CONTINUOUS
 62
     7
  5
393
 10
-4.715866
 20
-2.279143
 30
0.0
 11
-4.715887
 21
-2.268175
 31
0.0
  0
LINE
  8
0
  6
CONTINUOUS
 62
     7
  5
394
 10
-4.715887
 20
-2.268175
 30
0.0
 11
-4.715899
 21
-2.257102
 31
0.0
  0
LINE
  8
0
  6
CONTINUOUS
 62
     7
  5
395
 10
-4.715899
 20
-2.257102
 30
0.0
 11
-4.715905
 21
-2.2461
 31
0.0
  0
LINE
  8
0
  6
CONTINUOUS
 62
     7
  5
396
 10
-4.715905
 20
-2.2461
 30
0.0
 11
-4.715905
 21
-2.23526
 31
0.0
  0
LINE
  8
0
  6
CONTINUOUS
 62
     7
  5
397
 10
-4.715905
 20
-2.23526
 30
0.0
 11
-4.715899
 21
-2.224258
 31
0.0
  0
LINE
  8
0
  6
CONTINUOUS
 62
     7
  5
398
 10
-4.715899
 20
-2.224258
 30
0.0
 11
-4.715887
 21
-2.213185
 31
0.0
  0
LINE
  8
0
  6
CONTINUOUS
 62
     7
  5
399
 10
-4.715887
 20
-2.213185
 30
0.0
 11
-4.715866
 21
-2.202217
 31
0.0
  0
LINE
  8
0
  6
CONTINUOUS
 62
     7
  5
39A
 10
-4.715866
 20
-2.202217
 30
0.0
 11
-4.715836
 21
-2.191523
 31
0.0
  0
LINE
  8
0
  6
CONTINUOUS
 62
     7
  5
39B
 10
-4.715836
 20
-2.191523
 30
0.0
 11
-4.715794
 21
-2.181244
 31
0.0
  0
LINE
  8
0
  6
CONTINUOUS
 62
     7
  5
39C
 10
-4.715794
 20
-2.181244
 30
0.0
 11
-4.715739
 21
-2.171517
 31
0.0
  0
LINE
  8
0
  6
CONTINUOUS
 62
     7
  5
39D
 10
-4.715739
 20
-2.171517
 30
0.0
 11
-4.715668
 21
-2.16247
 31
0.0
  0
LINE
  8
0
  6
CONTINUOUS
 62
     7
  5
39E
 10
-4.715668
 20
-2.16247
 30
0.0
 11
-4.715581
 21
-2.154215
 31
0.0
  0
LINE
  8
0
  6
CONTINUOUS
 62
     7
  5
39F
 10
-4.715581
 20
-2.154215
 30
0.0
 11
-4.715476
 21
-2.146708
 31
0.0
  0
LINE
  8
0
  6
CONTINUOUS
 62
     7
  5
3A0
 10
-4.715476
 20
-2.146708
 30
0.0
 11
-4.715345
 21
-2.139765
 31
0.0
  0
LINE
  8
0
  6
CONTINUOUS
 62
     7
  5
3A1
 10
-4.715345
 20
-2.139765
 30
0.0
 11
-4.715187
 21
-2.133523
 31
0.0
  0
LINE
  8
0
  6
CONTINUOUS
 62
     7
  5
3A2
 10
-4.715187
 20
-2.133523
 30
0.0
 11
-4.715001
 21
-2.12811
 31
0.0
  0
LINE
  8
0
  6
CONTINUOUS
 62
     7
  5
3A3
 10
-4.715001
 20
-2.12811
 30
0.0
 11
-4.714784
 21
-2.12362
 31
0.0
  0
LINE
  8
0
  6
CONTINUOUS
 62
     7
  5
3A4
 10
-4.714784
 20
-2.12362
 30
0.0
 11
-4.714538
 21
-2.120112
 31
0.0
  0
LINE
  8
0
  6
CONTINUOUS
 62
     7
  5
3A5
 10
-4.714538
 20
-2.120112
 30
0.0
 11
-4.714264
 21
-2.117623
 31
0.0
  0
LINE
  8
0
  6
CONTINUOUS
 62
     7
  5
3A6
 10
-4.714264
 20
-2.117623
 30
0.0
 11
-4.713967
 21
-2.116156
 31
0.0
  0
LINE
  8
0
  6
CONTINUOUS
 62
     7
  5
3A7
 10
-4.713967
 20
-2.116156
 30
0.0
 11
-4.71365
 21
-2.11568
 31
0.0
  0
LINE
  8
0
  6
CONTINUOUS
 62
     7
  5
3A8
 10
-4.708383
 20
-2.24068
 30
0.0
 11
-4.708389
 21
-2.246101
 31
0.0
  0
LINE
  8
0
  6
CONTINUOUS
 62
     7
  5
3A9
 10
-4.708389
 20
-2.246101
 30
0.0
 11
-4.708408
 21
-2.251584
 31
0.0
  0
LINE
  8
0
  6
CONTINUOUS
 62
     7
  5
3AA
 10
-4.708408
 20
-2.251584
 30
0.0
 11
-4.708441
 21
-2.257106
 31
0.0
  0
LINE
  8
0
  6
CONTINUOUS
 62
     7
  5
3AB
 10
-4.708441
 20
-2.257106
 30
0.0
 11
-4.708488
 21
-2.262647
 31
0.0
  0
LINE
  8
0
  6
CONTINUOUS
 62
     7
  5
3AC
 10
-4.708488
 20
-2.262647
 30
0.0
 11
-4.708548
 21
-2.268182
 31
0.0
  0
LINE
  8
0
  6
CONTINUOUS
 62
     7
  5
3AD
 10
-4.708548
 20
-2.268182
 30
0.0
 11
-4.708621
 21
-2.273691
 31
0.0
  0
LINE
  8
0
  6
CONTINUOUS
 62
     7
  5
3AE
 10
-4.708621
 20
-2.273691
 30
0.0
 11
-4.708708
 21
-2.279151
 31
0.0
  0
LINE
  8
0
  6
CONTINUOUS
 62
     7
  5
3AF
 10
-4.708708
 20
-2.279151
 30
0.0
 11
-4.708807
 21
-2.284542
 31
0.0
  0
LINE
  8
0
  6
CONTINUOUS
 62
     7
  5
3B0
 10
-4.708807
 20
-2.284542
 30
0.0
 11
-4.708919
 21
-2.289847
 31
0.0
  0
LINE
  8
0
  6
CONTINUOUS
 62
     7
  5
3B1
 10
-4.708919
 20
-2.289847
 30
0.0
 11
-4.709042
 21
-2.295046
 31
0.0
  0
LINE
  8
0
  6
CONTINUOUS
 62
     7
  5
3B2
 10
-4.709042
 20
-2.295046
 30
0.0
 11
-4.709176
 21
-2.300125
 31
0.0
  0
LINE
  8
0
  6
CONTINUOUS
 62
     7
  5
3B3
 10
-4.709176
 20
-2.300125
 30
0.0
 11
-4.70932
 21
-2.305066
 31
0.0
  0
LINE
  8
0
  6
CONTINUOUS
 62
     7
  5
3B4
 10
-4.70932
 20
-2.305066
 30
0.0
 11
-4.709473
 21
-2.309852
 31
0.0
  0
LINE
  8
0
  6
CONTINUOUS
 62
     7
  5
3B5
 10
-4.709473
 20
-2.309852
 30
0.0
 11
-4.709633
 21
-2.314467
 31
0.0
  0
LINE
  8
0
  6
CONTINUOUS
 62
     7
  5
3B6
 10
-4.709633
 20
-2.314467
 30
0.0
 11
-4.7098
 21
-2.318897
 31
0.0
  0
LINE
  8
0
  6
CONTINUOUS
 62
     7
  5
3B7
 10
-4.7098
 20
-2.318897
 30
0.0
 11
-4.709972
 21
-2.323128
 31
0.0
  0
LINE
  8
0
  6
CONTINUOUS
 62
     7
  5
3B8
 10
-4.709972
 20
-2.323128
 30
0.0
 11
-4.710149
 21
-2.32715
 31
0.0
  0
LINE
  8
0
  6
CONTINUOUS
 62
     7
  5
3B9
 10
-4.710149
 20
-2.32715
 30
0.0
 11
-4.710329
 21
-2.330968
 31
0.0
  0
LINE
  8
0
  6
CONTINUOUS
 62
     7
  5
3BA
 10
-4.710329
 20
-2.330968
 30
0.0
 11
-4.710515
 21
-2.334655
 31
0.0
  0
LINE
  8
0
  6
CONTINUOUS
 62
     7
  5
3BB
 10
-4.710515
 20
-2.334655
 30
0.0
 11
-4.710708
 21
-2.338205
 31
0.0
  0
LINE
  8
0
  6
CONTINUOUS
 62
     7
  5
3BC
 10
-4.710708
 20
-2.338205
 30
0.0
 11
-4.710907
 21
-2.341597
 31
0.0
  0
LINE
  8
0
  6
CONTINUOUS
 62
     7
  5
3BD
 10
-4.710907
 20
-2.341597
 30
0.0
 11
-4.711109
 21
-2.344813
 31
0.0
  0
LINE
  8
0
  6
CONTINUOUS
 62
     7
  5
3BE
 10
-4.711109
 20
-2.344813
 30
0.0
 11
-4.711315
 21
-2.347837
 31
0.0
  0
LINE
  8
0
  6
CONTINUOUS
 62
     7
  5
3BF
 10
-4.711315
 20
-2.347837
 30
0.0
 11
-4.711522
 21
-2.350653
 31
0.0
  0
LINE
  8
0
  6
CONTINUOUS
 62
     7
  5
3C0
 10
-4.711522
 20
-2.350653
 30
0.0
 11
-4.711731
 21
-2.353249
 31
0.0
  0
LINE
  8
0
  6
CONTINUOUS
 62
     7
  5
3C1
 10
-4.711731
 20
-2.353249
 30
0.0
 11
-4.711939
 21
-2.355614
 31
0.0
  0
LINE
  8
0
  6
CONTINUOUS
 62
     7
  5
3C2
 10
-4.711939
 20
-2.355614
 30
0.0
 11
-4.712146
 21
-2.357739
 31
0.0
  0
LINE
  8
0
  6
CONTINUOUS
 62
     7
  5
3C3
 10
-4.712146
 20
-2.357739
 30
0.0
 11
-4.712351
 21
-2.359618
 31
0.0
  0
LINE
  8
0
  6
CONTINUOUS
 62
     7
  5
3C4
 10
-4.712351
 20
-2.359618
 30
0.0
 11
-4.712553
 21
-2.361247
 31
0.0
  0
LINE
  8
0
  6
CONTINUOUS
 62
     7
  5
3C5
 10
-4.712553
 20
-2.361247
 30
0.0
 11
-4.71275
 21
-2.36262
 31
0.0
  0
LINE
  8
0
  6
CONTINUOUS
 62
     7
  5
3C6
 10
-4.71275
 20
-2.36262
 30
0.0
 11
-4.712943
 21
-2.363737
 31
0.0
  0
LINE
  8
0
  6
CONTINUOUS
 62
     7
  5
3C7
 10
-4.712943
 20
-2.363737
 30
0.0
 11
-4.71313
 21
-2.364597
 31
0.0
  0
LINE
  8
0
  6
CONTINUOUS
 62
     7
  5
3C8
 10
-4.71313
 20
-2.364597
 30
0.0
 11
-4.713311
 21
-2.365204
 31
0.0
  0
LINE
  8
0
  6
CONTINUOUS
 62
     7
  5
3C9
 10
-4.713311
 20
-2.365204
 30
0.0
 11
-4.713484
 21
-2.365562
 31
0.0
  0
LINE
  8
0
  6
CONTINUOUS
 62
     7
  5
3CA
 10
-4.713484
 20
-2.365562
 30
0.0
 11
-4.71365
 21
-2.36568
 31
0.0
  0
LINE
  8
0
  6
CONTINUOUS
 62
     7
  5
3CB
 10
-4.694813
 20
2.11568
 30
0.0
 11
-4.6953
 21
2.115797
 31
0.0
  0
LINE
  8
0
  6
CONTINUOUS
 62
     7
  5
3CC
 10
-4.6953
 20
2.115797
 30
0.0
 11
-4.695786
 21
2.116154
 31
0.0
  0
LINE
  8
0
  6
CONTINUOUS
 62
     7
  5
3CD
 10
-4.695786
 20
2.116154
 30
0.0
 11
-4.696271
 21
2.116758
 31
0.0
  0
LINE
  8
0
  6
CONTINUOUS
 62
     7
  5
3CE
 10
-4.696271
 20
2.116758
 30
0.0
 11
-4.696751
 21
2.117615
 31
0.0
  0
LINE
  8
0
  6
CONTINUOUS
 62
     7
  5
3CF
 10
-4.696751
 20
2.117615
 30
0.0
 11
-4.697225
 21
2.118728
 31
0.0
  0
LINE
  8
0
  6
CONTINUOUS
 62
     7
  5
3D0
 10
-4.697225
 20
2.118728
 30
0.0
 11
-4.697691
 21
2.120097
 31
0.0
  0
LINE
  8
0
  6
CONTINUOUS
 62
     7
  5
3D1
 10
-4.697691
 20
2.120097
 30
0.0
 11
-4.698147
 21
2.12172
 31
0.0
  0
LINE
  8
0
  6
CONTINUOUS
 62
     7
  5
3D2
 10
-4.698147
 20
2.12172
 30
0.0
 11
-4.698591
 21
2.123594
 31
0.0
  0
LINE
  8
0
  6
CONTINUOUS
 62
     7
  5
3D3
 10
-4.698591
 20
2.123594
 30
0.0
 11
-4.699023
 21
2.125714
 31
0.0
  0
LINE
  8
0
  6
CONTINUOUS
 62
     7
  5
3D4
 10
-4.699023
 20
2.125714
 30
0.0
 11
-4.699442
 21
2.128073
 31
0.0
  0
LINE
  8
0
  6
CONTINUOUS
 62
     7
  5
3D5
 10
-4.699442
 20
2.128073
 30
0.0
 11
-4.699846
 21
2.130663
 31
0.0
  0
LINE
  8
0
  6
CONTINUOUS
 62
     7
  5
3D6
 10
-4.699846
 20
2.130663
 30
0.0
 11
-4.700234
 21
2.133474
 31
0.0
  0
LINE
  8
0
  6
CONTINUOUS
 62
     7
  5
3D7
 10
-4.700234
 20
2.133474
 30
0.0
 11
-4.700605
 21
2.136494
 31
0.0
  0
LINE
  8
0
  6
CONTINUOUS
 62
     7
  5
3D8
 10
-4.700605
 20
2.136494
 30
0.0
 11
-4.700959
 21
2.139707
 31
0.0
  0
LINE
  8
0
  6
CONTINUOUS
 62
     7
  5
3D9
 10
-4.700959
 20
2.139707
 30
0.0
 11
-4.701295
 21
2.143096
 31
0.0
  0
LINE
  8
0
  6
CONTINUOUS
 62
     7
  5
3DA
 10
-4.701295
 20
2.143096
 30
0.0
 11
-4.701613
 21
2.146644
 31
0.0
  0
LINE
  8
0
  6
CONTINUOUS
 62
     7
  5
3DB
 10
-4.701613
 20
2.146644
 30
0.0
 11
-4.701912
 21
2.15033
 31
0.0
  0
LINE
  8
0
  6
CONTINUOUS
 62
     7
  5
3DC
 10
-4.701912
 20
2.15033
 30
0.0
 11
-4.702193
 21
2.154147
 31
0.0
  0
LINE
  8
0
  6
CONTINUOUS
 62
     7
  5
3DD
 10
-4.702193
 20
2.154147
 30
0.0
 11
-4.702461
 21
2.158167
 31
0.0
  0
LINE
  8
0
  6
CONTINUOUS
 62
     7
  5
3DE
 10
-4.702461
 20
2.158167
 30
0.0
 11
-4.702717
 21
2.162397
 31
0.0
  0
LINE
  8
0
  6
CONTINUOUS
 62
     7
  5
3DF
 10
-4.702717
 20
2.162397
 30
0.0
 11
-4.702959
 21
2.166827
 31
0.0
  0
LINE
  8
0
  6
CONTINUOUS
 62
     7
  5
3E0
 10
-4.702959
 20
2.166827
 30
0.0
 11
-4.703187
 21
2.171443
 31
0.0
  0
LINE
  8
0
  6
CONTINUOUS
 62
     7
  5
3E1
 10
-4.703187
 20
2.171443
 30
0.0
 11
-4.703399
 21
2.176231
 31
0.0
  0
LINE
  8
0
  6
CONTINUOUS
 62
     7
  5
3E2
 10
-4.703399
 20
2.176231
 30
0.0
 11
-4.703595
 21
2.181174
 31
0.0
  0
LINE
  8
0
  6
CONTINUOUS
 62
     7
  5
3E3
 10
-4.703595
 20
2.181174
 30
0.0
 11
-4.703775
 21
2.186256
 31
0.0
  0
LINE
  8
0
  6
CONTINUOUS
 62
     7
  5
3E4
 10
-4.703775
 20
2.186256
 30
0.0
 11
-4.703937
 21
2.19146
 31
0.0
  0
LINE
  8
0
  6
CONTINUOUS
 62
     7
  5
3E5
 10
-4.703937
 20
2.19146
 30
0.0
 11
-4.704082
 21
2.196768
 31
0.0
  0
LINE
  8
0
  6
CONTINUOUS
 62
     7
  5
3E6
 10
-4.704082
 20
2.196768
 30
0.0
 11
-4.70421
 21
2.202165
 31
0.0
  0
LINE
  8
0
  6
CONTINUOUS
 62
     7
  5
3E7
 10
-4.70421
 20
2.202165
 30
0.0
 11
-4.70432
 21
2.207631
 31
0.0
  0
LINE
  8
0
  6
CONTINUOUS
 62
     7
  5
3E8
 10
-4.70432
 20
2.207631
 30
0.0
 11
-4.704412
 21
2.213145
 31
0.0
  0
LINE
  8
0
  6
CONTINUOUS
 62
     7
  5
3E9
 10
-4.704412
 20
2.213145
 30
0.0
 11
-4.704487
 21
2.218687
 31
0.0
  0
LINE
  8
0
  6
CONTINUOUS
 62
     7
  5
3EA
 10
-4.704487
 20
2.218687
 30
0.0
 11
-4.704545
 21
2.224234
 31
0.0
  0
LINE
  8
0
  6
CONTINUOUS
 62
     7
  5
3EB
 10
-4.704545
 20
2.224234
 30
0.0
 11
-4.704585
 21
2.229763
 31
0.0
  0
LINE
  8
0
  6
CONTINUOUS
 62
     7
  5
3EC
 10
-4.704585
 20
2.229763
 30
0.0
 11
-4.704609
 21
2.235252
 31
0.0
  0
LINE
  8
0
  6
CONTINUOUS
 62
     7
  5
3ED
 10
-4.704609
 20
2.235252
 30
0.0
 11
-4.704617
 21
2.24068
 31
0.0
  0
LINE
  8
0
  6
CONTINUOUS
 62
     7
  5
3EE
 10
-4.694813
 20
2.36568
 30
0.0
 11
-4.693816
 21
2.365205
 31
0.0
  0
LINE
  8
0
  6
CONTINUOUS
 62
     7
  5
3EF
 10
-4.693816
 20
2.365205
 30
0.0
 11
-4.69278
 21
2.363743
 31
0.0
  0
LINE
  8
0
  6
CONTINUOUS
 62
     7
  5
3F0
 10
-4.69278
 20
2.363743
 30
0.0
 11
-4.691723
 21
2.36126
 31
0.0
  0
LINE
  8
0
  6
CONTINUOUS
 62
     7
  5
3F1
 10
-4.691723
 20
2.36126
 30
0.0
 11
-4.690661
 21
2.357763
 31
0.0
  0
LINE
  8
0
  6
CONTINUOUS
 62
     7
  5
3F2
 10
-4.690661
 20
2.357763
 30
0.0
 11
-4.68961
 21
2.353285
 31
0.0
  0
LINE
  8
0
  6
CONTINUOUS
 62
     7
  5
3F3
 10
-4.68961
 20
2.353285
 30
0.0
 11
-4.688587
 21
2.347886
 31
0.0
  0
LINE
  8
0
  6
CONTINUOUS
 62
     7
  5
3F4
 10
-4.688587
 20
2.347886
 30
0.0
 11
-4.68761
 21
2.341658
 31
0.0
  0
LINE
  8
0
  6
CONTINUOUS
 62
     7
  5
3F5
 10
-4.68761
 20
2.341658
 30
0.0
 11
-4.686693
 21
2.334726
 31
0.0
  0
LINE
  8
0
  6
CONTINUOUS
 62
     7
  5
3F6
 10
-4.686693
 20
2.334726
 30
0.0
 11
-4.685849
 21
2.327228
 31
0.0
  0
LINE
  8
0
  6
CONTINUOUS
 62
     7
  5
3F7
 10
-4.685849
 20
2.327228
 30
0.0
 11
-4.685061
 21
2.318984
 31
0.0
  0
LINE
  8
0
  6
CONTINUOUS
 62
     7
  5
3F8
 10
-4.685061
 20
2.318984
 30
0.0
 11
-4.68433
 21
2.309942
 31
0.0
  0
LINE
  8
0
  6
CONTINUOUS
 62
     7
  5
3F9
 10
-4.68433
 20
2.309942
 30
0.0
 11
-4.683678
 21
2.300214
 31
0.0
  0
LINE
  8
0
  6
CONTINUOUS
 62
     7
  5
3FA
 10
-4.683678
 20
2.300214
 30
0.0
 11
-4.683117
 21
2.289928
 31
0.0
  0
LINE
  8
0
  6
CONTINUOUS
 62
     7
  5
3FB
 10
-4.683117
 20
2.289928
 30
0.0
 11
-4.682661
 21
2.279221
 31
0.0
  0
LINE
  8
0
  6
CONTINUOUS
 62
     7
  5
3FC
 10
-4.682661
 20
2.279221
 30
0.0
 11
-4.682317
 21
2.268236
 31
0.0
  0
LINE
  8
0
  6
CONTINUOUS
 62
     7
  5
3FD
 10
-4.682317
 20
2.268236
 30
0.0
 11
-4.68209
 21
2.25714
 31
0.0
  0
LINE
  8
0
  6
CONTINUOUS
 62
     7
  5
3FE
 10
-4.68209
 20
2.25714
 30
0.0
 11
-4.681978
 21
2.246113
 31
0.0
  0
LINE
  8
0
  6
CONTINUOUS
 62
     7
  5
3FF
 10
-4.681978
 20
2.246113
 30
0.0
 11
-4.681978
 21
2.235247
 31
0.0
  0
LINE
  8
0
  6
CONTINUOUS
 62
     7
  5
400
 10
-4.681978
 20
2.235247
 30
0.0
 11
-4.68209
 21
2.22422
 31
0.0
  0
LINE
  8
0
  6
CONTINUOUS
 62
     7
  5
401
 10
-4.68209
 20
2.22422
 30
0.0
 11
-4.682317
 21
2.213124
 31
0.0
  0
LINE
  8
0
  6
CONTINUOUS
 62
     7
  5
402
 10
-4.682317
 20
2.213124
 30
0.0
 11
-4.682661
 21
2.202139
 31
0.0
  0
LINE
  8
0
  6
CONTINUOUS
 62
     7
  5
403
 10
-4.682661
 20
2.202139
 30
0.0
 11
-4.683117
 21
2.191432
 31
0.0
  0
LINE
  8
0
  6
CONTINUOUS
 62
     7
  5
404
 10
-4.683117
 20
2.191432
 30
0.0
 11
-4.683678
 21
2.181146
 31
0.0
  0
LINE
  8
0
  6
CONTINUOUS
 62
     7
  5
405
 10
-4.683678
 20
2.181146
 30
0.0
 11
-4.68433
 21
2.171418
 31
0.0
  0
LINE
  8
0
  6
CONTINUOUS
 62
     7
  5
406
 10
-4.68433
 20
2.171418
 30
0.0
 11
-4.685061
 21
2.162376
 31
0.0
  0
LINE
  8
0
  6
CONTINUOUS
 62
     7
  5
407
 10
-4.685061
 20
2.162376
 30
0.0
 11
-4.685849
 21
2.154132
 31
0.0
  0
LINE
  8
0
  6
CONTINUOUS
 62
     7
  5
408
 10
-4.685849
 20
2.154132
 30
0.0
 11
-4.686693
 21
2.146634
 31
0.0
  0
LINE
  8
0
  6
CONTINUOUS
 62
     7
  5
409
 10
-4.686693
 20
2.146634
 30
0.0
 11
-4.68761
 21
2.139702
 31
0.0
  0
LINE
  8
0
  6
CONTINUOUS
 62
     7
  5
40A
 10
-4.68761
 20
2.139702
 30
0.0
 11
-4.688587
 21
2.133474
 31
0.0
  0
LINE
  8
0
  6
CONTINUOUS
 62
     7
  5
40B
 10
-4.688587
 20
2.133474
 30
0.0
 11
-4.68961
 21
2.128075
 31
0.0
  0
LINE
  8
0
  6
CONTINUOUS
 62
     7
  5
40C
 10
-4.68961
 20
2.128075
 30
0.0
 11
-4.690661
 21
2.123597
 31
0.0
  0
LINE
  8
0
  6
CONTINUOUS
 62
     7
  5
40D
 10
-4.690661
 20
2.123597
 30
0.0
 11
-4.691723
 21
2.1201
 31
0.0
  0
LINE
  8
0
  6
CONTINUOUS
 62
     7
  5
40E
 10
-4.691723
 20
2.1201
 30
0.0
 11
-4.69278
 21
2.117617
 31
0.0
  0
LINE
  8
0
  6
CONTINUOUS
 62
     7
  5
40F
 10
-4.69278
 20
2.117617
 30
0.0
 11
-4.693816
 21
2.116155
 31
0.0
  0
LINE
  8
0
  6
CONTINUOUS
 62
     7
  5
410
 10
-4.693816
 20
2.116155
 30
0.0
 11
-4.694813
 21
2.11568
 31
0.0
  0
LINE
  8
0
  6
CONTINUOUS
 62
     7
  5
411
 10
-4.704617
 20
2.24068
 30
0.0
 11
-4.704609
 21
2.246108
 31
0.0
  0
LINE
  8
0
  6
CONTINUOUS
 62
     7
  5
412
 10
-4.704609
 20
2.246108
 30
0.0
 11
-4.704585
 21
2.251597
 31
0.0
  0
LINE
  8
0
  6
CONTINUOUS
 62
     7
  5
413
 10
-4.704585
 20
2.251597
 30
0.0
 11
-4.704545
 21
2.257126
 31
0.0
  0
LINE
  8
0
  6
CONTINUOUS
 62
     7
  5
414
 10
-4.704545
 20
2.257126
 30
0.0
 11
-4.704487
 21
2.262673
 31
0.0
  0
LINE
  8
0
  6
CONTINUOUS
 62
     7
  5
415
 10
-4.704487
 20
2.262673
 30
0.0
 11
-4.704412
 21
2.268215
 31
0.0
  0
LINE
  8
0
  6
CONTINUOUS
 62
     7
  5
416
 10
-4.704412
 20
2.268215
 30
0.0
 11
-4.70432
 21
2.273729
 31
0.0
  0
LINE
  8
0
  6
CONTINUOUS
 62
     7
  5
417
 10
-4.70432
 20
2.273729
 30
0.0
 11
-4.70421
 21
2.279195
 31
0.0
  0
LINE
  8
0
  6
CONTINUOUS
 62
     7
  5
418
 10
-4.70421
 20
2.279195
 30
0.0
 11
-4.704082
 21
2.284592
 31
0.0
  0
LINE
  8
0
  6
CONTINUOUS
 62
     7
  5
419
 10
-4.704082
 20
2.284592
 30
0.0
 11
-4.703937
 21
2.2899
 31
0.0
  0
LINE
  8
0
  6
CONTINUOUS
 62
     7
  5
41A
 10
-4.703937
 20
2.2899
 30
0.0
 11
-4.703775
 21
2.295104
 31
0.0
  0
LINE
  8
0
  6
CONTINUOUS
 62
     7
  5
41B
 10
-4.703775
 20
2.295104
 30
0.0
 11
-4.703595
 21
2.300186
 31
0.0
  0
LINE
  8
0
  6
CONTINUOUS
 62
     7
  5
41C
 10
-4.703595
 20
2.300186
 30
0.0
 11
-4.703399
 21
2.305129
 31
0.0
  0
LINE
  8
0
  6
CONTINUOUS
 62
     7
  5
41D
 10
-4.703399
 20
2.305129
 30
0.0
 11
-4.703187
 21
2.309917
 31
0.0
  0
LINE
  8
0
  6
CONTINUOUS
 62
     7
  5
41E
 10
-4.703187
 20
2.309917
 30
0.0
 11
-4.702959
 21
2.314533
 31
0.0
  0
LINE
  8
0
  6
CONTINUOUS
 62
     7
  5
41F
 10
-4.702959
 20
2.314533
 30
0.0
 11
-4.702717
 21
2.318963
 31
0.0
  0
LINE
  8
0
  6
CONTINUOUS
 62
     7
  5
420
 10
-4.702717
 20
2.318963
 30
0.0
 11
-4.702461
 21
2.323193
 31
0.0
  0
LINE
  8
0
  6
CONTINUOUS
 62
     7
  5
421
 10
-4.702461
 20
2.323193
 30
0.0
 11
-4.702193
 21
2.327213
 31
0.0
  0
LINE
  8
0
  6
CONTINUOUS
 62
     7
  5
422
 10
-4.702193
 20
2.327213
 30
0.0
 11
-4.701912
 21
2.33103
 31
0.0
  0
LINE
  8
0
  6
CONTINUOUS
 62
     7
  5
423
 10
-4.701912
 20
2.33103
 30
0.0
 11
-4.701613
 21
2.334716
 31
0.0
  0
LINE
  8
0
  6
CONTINUOUS
 62
     7
  5
424
 10
-4.701613
 20
2.334716
 30
0.0
 11
-4.701295
 21
2.338264
 31
0.0
  0
LINE
  8
0
  6
CONTINUOUS
 62
     7
  5
425
 10
-4.701295
 20
2.338264
 30
0.0
 11
-4.700959
 21
2.341653
 31
0.0
  0
LINE
  8
0
  6
CONTINUOUS
 62
     7
  5
426
 10
-4.700959
 20
2.341653
 30
0.0
 11
-4.700605
 21
2.344866
 31
0.0
  0
LINE
  8
0
  6
CONTINUOUS
 62
     7
  5
427
 10
-4.700605
 20
2.344866
 30
0.0
 11
-4.700234
 21
2.347886
 31
0.0
  0
LINE
  8
0
  6
CONTINUOUS
 62
     7
  5
428
 10
-4.700234
 20
2.347886
 30
0.0
 11
-4.699846
 21
2.350697
 31
0.0
  0
LINE
  8
0
  6
CONTINUOUS
 62
     7
  5
429
 10
-4.699846
 20
2.350697
 30
0.0
 11
-4.699442
 21
2.353287
 31
0.0
  0
LINE
  8
0
  6
CONTINUOUS
 62
     7
  5
42A
 10
-4.699442
 20
2.353287
 30
0.0
 11
-4.699023
 21
2.355646
 31
0.0
  0
LINE
  8
0
  6
CONTINUOUS
 62
     7
  5
42B
 10
-4.699023
 20
2.355646
 30
0.0
 11
-4.698591
 21
2.357766
 31
0.0
  0
LINE
  8
0
  6
CONTINUOUS
 62
     7
  5
42C
 10
-4.698591
 20
2.357766
 30
0.0
 11
-4.698147
 21
2.35964
 31
0.0
  0
LINE
  8
0
  6
CONTINUOUS
 62
     7
  5
42D
 10
-4.698147
 20
2.35964
 30
0.0
 11
-4.697691
 21
2.361263
 31
0.0
  0
LINE
  8
0
  6
CONTINUOUS
 62
     7
  5
42E
 10
-4.697691
 20
2.361263
 30
0.0
 11
-4.697225
 21
2.362632
 31
0.0
  0
LINE
  8
0
  6
CONTINUOUS
 62
     7
  5
42F
 10
-4.697225
 20
2.362632
 30
0.0
 11
-4.696751
 21
2.363745
 31
0.0
  0
LINE
  8
0
  6
CONTINUOUS
 62
     7
  5
430
 10
-4.696751
 20
2.363745
 30
0.0
 11
-4.696271
 21
2.364602
 31
0.0
  0
LINE
  8
0
  6
CONTINUOUS
 62
     7
  5
431
 10
-4.696271
 20
2.364602
 30
0.0
 11
-4.695786
 21
2.365206
 31
0.0
  0
LINE
  8
0
  6
CONTINUOUS
 62
     7
  5
432
 10
-4.695786
 20
2.365206
 30
0.0
 11
-4.6953
 21
2.365563
 31
0.0
  0
LINE
  8
0
  6
CONTINUOUS
 62
     7
  5
433
 10
-4.6953
 20
2.365563
 30
0.0
 11
-4.694813
 21
2.36568
 31
0.0
  0
LINE
  8
0
  6
CONTINUOUS
 62
     7
  5
434
 10
-4.71365
 20
2.11568
 30
0.0
 11
-4.71381
 21
2.115797
 31
0.0
  0
LINE
  8
0
  6
CONTINUOUS
 62
     7
  5
435
 10
-4.71381
 20
2.115797
 30
0.0
 11
-4.713967
 21
2.116156
 31
0.0
  0
LINE
  8
0
  6
CONTINUOUS
 62
     7
  5
436
 10
-4.713967
 20
2.116156
 30
0.0
 11
-4.714118
 21
2.116763
 31
0.0
  0
LINE
  8
0
  6
CONTINUOUS
 62
     7
  5
437
 10
-4.714118
 20
2.116763
 30
0.0
 11
-4.714264
 21
2.117623
 31
0.0
  0
LINE
  8
0
  6
CONTINUOUS
 62
     7
  5
438
 10
-4.714264
 20
2.117623
 30
0.0
 11
-4.714404
 21
2.118739
 31
0.0
  0
LINE
  8
0
  6
CONTINUOUS
 62
     7
  5
439
 10
-4.714404
 20
2.118739
 30
0.0
 11
-4.714538
 21
2.120112
 31
0.0
  0
LINE
  8
0
  6
CONTINUOUS
 62
     7
  5
43A
 10
-4.714538
 20
2.120112
 30
0.0
 11
-4.714664
 21
2.121741
 31
0.0
  0
LINE
  8
0
  6
CONTINUOUS
 62
     7
  5
43B
 10
-4.714664
 20
2.121741
 30
0.0
 11
-4.714784
 21
2.12362
 31
0.0
  0
LINE
  8
0
  6
CONTINUOUS
 62
     7
  5
43C
 10
-4.714784
 20
2.12362
 30
0.0
 11
-4.714896
 21
2.125745
 31
0.0
  0
LINE
  8
0
  6
CONTINUOUS
 62
     7
  5
43D
 10
-4.714896
 20
2.125745
 30
0.0
 11
-4.715001
 21
2.12811
 31
0.0
  0
LINE
  8
0
  6
CONTINUOUS
 62
     7
  5
43E
 10
-4.715001
 20
2.12811
 30
0.0
 11
-4.715098
 21
2.130706
 31
0.0
  0
LINE
  8
0
  6
CONTINUOUS
 62
     7
  5
43F
 10
-4.715098
 20
2.130706
 30
0.0
 11
-4.715187
 21
2.133523
 31
0.0
  0
LINE
  8
0
  6
CONTINUOUS
 62
     7
  5
440
 10
-4.715187
 20
2.133523
 30
0.0
 11
-4.71527
 21
2.136547
 31
0.0
  0
LINE
  8
0
  6
CONTINUOUS
 62
     7
  5
441
 10
-4.71527
 20
2.136547
 30
0.0
 11
-4.715345
 21
2.139765
 31
0.0
  0
LINE
  8
0
  6
CONTINUOUS
 62
     7
  5
442
 10
-4.715345
 20
2.139765
 30
0.0
 11
-4.715414
 21
2.143158
 31
0.0
  0
LINE
  8
0
  6
CONTINUOUS
 62
     7
  5
443
 10
-4.715414
 20
2.143158
 30
0.0
 11
-4.715476
 21
2.146708
 31
0.0
  0
LINE
  8
0
  6
CONTINUOUS
 62
     7
  5
444
 10
-4.715476
 20
2.146708
 30
0.0
 11
-4.715531
 21
2.150396
 31
0.0
  0
LINE
  8
0
  6
CONTINUOUS
 62
     7
  5
445
 10
-4.715531
 20
2.150396
 30
0.0
 11
-4.715581
 21
2.154215
 31
0.0
  0
LINE
  8
0
  6
CONTINUOUS
 62
     7
  5
446
 10
-4.715581
 20
2.154215
 30
0.0
 11
-4.715627
 21
2.158238
 31
0.0
  0
LINE
  8
0
  6
CONTINUOUS
 62
     7
  5
447
 10
-4.715627
 20
2.158238
 30
0.0
 11
-4.715668
 21
2.16247
 31
0.0
  0
LINE
  8
0
  6
CONTINUOUS
 62
     7
  5
448
 10
-4.715668
 20
2.16247
 30
0.0
 11
-4.715705
 21
2.166901
 31
0.0
  0
LINE
  8
0
  6
CONTINUOUS
 62
     7
  5
449
 10
-4.715705
 20
2.166901
 30
0.0
 11
-4.715739
 21
2.171517
 31
0.0
  0
LINE
  8
0
  6
CONTINUOUS
 62
     7
  5
44A
 10
-4.715739
 20
2.171517
 30
0.0
 11
-4.715768
 21
2.176303
 31
0.0
  0
LINE
  8
0
  6
CONTINUOUS
 62
     7
  5
44B
 10
-4.715768
 20
2.176303
 30
0.0
 11
-4.715794
 21
2.181244
 31
0.0
  0
LINE
  8
0
  6
CONTINUOUS
 62
     7
  5
44C
 10
-4.715794
 20
2.181244
 30
0.0
 11
-4.715816
 21
2.186323
 31
0.0
  0
LINE
  8
0
  6
CONTINUOUS
 62
     7
  5
44D
 10
-4.715816
 20
2.186323
 30
0.0
 11
-4.715836
 21
2.191523
 31
0.0
  0
LINE
  8
0
  6
CONTINUOUS
 62
     7
  5
44E
 10
-4.715836
 20
2.191523
 30
0.0
 11
-4.715852
 21
2.196826
 31
0.0
  0
LINE
  8
0
  6
CONTINUOUS
 62
     7
  5
44F
 10
-4.715852
 20
2.196826
 30
0.0
 11
-4.715866
 21
2.202217
 31
0.0
  0
LINE
  8
0
  6
CONTINUOUS
 62
     7
  5
450
 10
-4.715866
 20
2.202217
 30
0.0
 11
-4.715877
 21
2.207677
 31
0.0
  0
LINE
  8
0
  6
CONTINUOUS
 62
     7
  5
451
 10
-4.715877
 20
2.207677
 30
0.0
 11
-4.715887
 21
2.213185
 31
0.0
  0
LINE
  8
0
  6
CONTINUOUS
 62
     7
  5
452
 10
-4.715887
 20
2.213185
 30
0.0
 11
-4.715894
 21
2.218719
 31
0.0
  0
LINE
  8
0
  6
CONTINUOUS
 62
     7
  5
453
 10
-4.715894
 20
2.218719
 30
0.0
 11
-4.715899
 21
2.224258
 31
0.0
  0
LINE
  8
0
  6
CONTINUOUS
 62
     7
  5
454
 10
-4.715899
 20
2.224258
 30
0.0
 11
-4.715903
 21
2.229779
 31
0.0
  0
LINE
  8
0
  6
CONTINUOUS
 62
     7
  5
455
 10
-4.715903
 20
2.229779
 30
0.0
 11
-4.715905
 21
2.23526
 31
0.0
  0
LINE
  8
0
  6
CONTINUOUS
 62
     7
  5
456
 10
-4.715905
 20
2.23526
 30
0.0
 11
-4.715906
 21
2.24068
 31
0.0
  0
LINE
  8
0
  6
CONTINUOUS
 62
     7
  5
457
 10
-4.71365
 20
2.36568
 30
0.0
 11
-4.713311
 21
2.365204
 31
0.0
  0
LINE
  8
0
  6
CONTINUOUS
 62
     7
  5
458
 10
-4.713311
 20
2.365204
 30
0.0
 11
-4.712943
 21
2.363737
 31
0.0
  0
LINE
  8
0
  6
CONTINUOUS
 62
     7
  5
459
 10
-4.712943
 20
2.363737
 30
0.0
 11
-4.712553
 21
2.361247
 31
0.0
  0
LINE
  8
0
  6
CONTINUOUS
 62
     7
  5
45A
 10
-4.712553
 20
2.361247
 30
0.0
 11
-4.712146
 21
2.357739
 31
0.0
  0
LINE
  8
0
  6
CONTINUOUS
 62
     7
  5
45B
 10
-4.712146
 20
2.357739
 30
0.0
 11
-4.711731
 21
2.353249
 31
0.0
  0
LINE
  8
0
  6
CONTINUOUS
 62
     7
  5
45C
 10
-4.711731
 20
2.353249
 30
0.0
 11
-4.711315
 21
2.347837
 31
0.0
  0
LINE
  8
0
  6
CONTINUOUS
 62
     7
  5
45D
 10
-4.711315
 20
2.347837
 30
0.0
 11
-4.710907
 21
2.341597
 31
0.0
  0
LINE
  8
0
  6
CONTINUOUS
 62
     7
  5
45E
 10
-4.710907
 20
2.341597
 30
0.0
 11
-4.710515
 21
2.334655
 31
0.0
  0
LINE
  8
0
  6
CONTINUOUS
 62
     7
  5
45F
 10
-4.710515
 20
2.334655
 30
0.0
 11
-4.710149
 21
2.32715
 31
0.0
  0
LINE
  8
0
  6
CONTINUOUS
 62
     7
  5
460
 10
-4.710149
 20
2.32715
 30
0.0
 11
-4.7098
 21
2.318897
 31
0.0
  0
LINE
  8
0
  6
CONTINUOUS
 62
     7
  5
461
 10
-4.7098
 20
2.318897
 30
0.0
 11
-4.709473
 21
2.309852
 31
0.0
  0
LINE
  8
0
  6
CONTINUOUS
 62
     7
  5
462
 10
-4.709473
 20
2.309852
 30
0.0
 11
-4.709176
 21
2.300125
 31
0.0
  0
LINE
  8
0
  6
CONTINUOUS
 62
     7
  5
463
 10
-4.709176
 20
2.300125
 30
0.0
 11
-4.708919
 21
2.289847
 31
0.0
  0
LINE
  8
0
  6
CONTINUOUS
 62
     7
  5
464
 10
-4.708919
 20
2.289847
 30
0.0
 11
-4.708708
 21
2.279151
 31
0.0
  0
LINE
  8
0
  6
CONTINUOUS
 62
     7
  5
465
 10
-4.708708
 20
2.279151
 30
0.0
 11
-4.708548
 21
2.268182
 31
0.0
  0
LINE
  8
0
  6
CONTINUOUS
 62
     7
  5
466
 10
-4.708548
 20
2.268182
 30
0.0
 11
-4.708441
 21
2.257106
 31
0.0
  0
LINE
  8
0
  6
CONTINUOUS
 62
     7
  5
467
 10
-4.708441
 20
2.257106
 30
0.0
 11
-4.708389
 21
2.246101
 31
0.0
  0
LINE
  8
0
  6
CONTINUOUS
 62
     7
  5
468
 10
-4.708389
 20
2.246101
 30
0.0
 11
-4.708389
 21
2.235259
 31
0.0
  0
LINE
  8
0
  6
CONTINUOUS
 62
     7
  5
469
 10
-4.708389
 20
2.235259
 30
0.0
 11
-4.708441
 21
2.224254
 31
0.0
  0
LINE
  8
0
  6
CONTINUOUS
 62
     7
  5
46A
 10
-4.708441
 20
2.224254
 30
0.0
 11
-4.708548
 21
2.213178
 31
0.0
  0
LINE
  8
0
  6
CONTINUOUS
 62
     7
  5
46B
 10
-4.708548
 20
2.213178
 30
0.0
 11
-4.708708
 21
2.202209
 31
0.0
  0
LINE
  8
0
  6
CONTINUOUS
 62
     7
  5
46C
 10
-4.708708
 20
2.202209
 30
0.0
 11
-4.708919
 21
2.191513
 31
0.0
  0
LINE
  8
0
  6
CONTINUOUS
 62
     7
  5
46D
 10
-4.708919
 20
2.191513
 30
0.0
 11
-4.709176
 21
2.181235
 31
0.0
  0
LINE
  8
0
  6
CONTINUOUS
 62
     7
  5
46E
 10
-4.709176
 20
2.181235
 30
0.0
 11
-4.709473
 21
2.171508
 31
0.0
  0
LINE
  8
0
  6
CONTINUOUS
 62
     7
  5
46F
 10
-4.709473
 20
2.171508
 30
0.0
 11
-4.7098
 21
2.162463
 31
0.0
  0
LINE
  8
0
  6
CONTINUOUS
 62
     7
  5
470
 10
-4.7098
 20
2.162463
 30
0.0
 11
-4.710149
 21
2.15421
 31
0.0
  0
LINE
  8
0
  6
CONTINUOUS
 62
     7
  5
471
 10
-4.710149
 20
2.15421
 30
0.0
 11
-4.710515
 21
2.146705
 31
0.0
  0
LINE
  8
0
  6
CONTINUOUS
 62
     7
  5
472
 10
-4.710515
 20
2.146705
 30
0.0
 11
-4.710907
 21
2.139763
 31
0.0
  0
LINE
  8
0
  6
CONTINUOUS
 62
     7
  5
473
 10
-4.710907
 20
2.139763
 30
0.0
 11
-4.711315
 21
2.133523
 31
0.0
  0
LINE
  8
0
  6
CONTINUOUS
 62
     7
  5
474
 10
-4.711315
 20
2.133523
 30
0.0
 11
-4.711731
 21
2.128111
 31
0.0
  0
LINE
  8
0
  6
CONTINUOUS
 62
     7
  5
475
 10
-4.711731
 20
2.128111
 30
0.0
 11
-4.712146
 21
2.123621
 31
0.0
  0
LINE
  8
0
  6
CONTINUOUS
 62
     7
  5
476
 10
-4.712146
 20
2.123621
 30
0.0
 11
-4.712553
 21
2.120113
 31
0.0
  0
LINE
  8
0
  6
CONTINUOUS
 62
     7
  5
477
 10
-4.712553
 20
2.120113
 30
0.0
 11
-4.712943
 21
2.117623
 31
0.0
  0
LINE
  8
0
  6
CONTINUOUS
 62
     7
  5
478
 10
-4.712943
 20
2.117623
 30
0.0
 11
-4.713311
 21
2.116156
 31
0.0
  0
LINE
  8
0
  6
CONTINUOUS
 62
     7
  5
479
 10
-4.713311
 20
2.116156
 30
0.0
 11
-4.71365
 21
2.11568
 31
0.0
  0
LINE
  8
0
  6
CONTINUOUS
 62
     7
  5
47A
 10
-4.715906
 20
2.24068
 30
0.0
 11
-4.715905
 21
2.2461
 31
0.0
  0
LINE
  8
0
  6
CONTINUOUS
 62
     7
  5
47B
 10
-4.715905
 20
2.2461
 30
0.0
 11
-4.715903
 21
2.251581
 31
0.0
  0
LINE
  8
0
  6
CONTINUOUS
 62
     7
  5
47C
 10
-4.715903
 20
2.251581
 30
0.0
 11
-4.715899
 21
2.257102
 31
0.0
  0
LINE
  8
0
  6
CONTINUOUS
 62
     7
  5
47D
 10
-4.715899
 20
2.257102
 30
0.0
 11
-4.715894
 21
2.262641
 31
0.0
  0
LINE
  8
0
  6
CONTINUOUS
 62
     7
  5
47E
 10
-4.715894
 20
2.262641
 30
0.0
 11
-4.715887
 21
2.268175
 31
0.0
  0
LINE
  8
0
  6
CONTINUOUS
 62
     7
  5
47F
 10
-4.715887
 20
2.268175
 30
0.0
 11
-4.715877
 21
2.273683
 31
0.0
  0
LINE
  8
0
  6
CONTINUOUS
 62
     7
  5
480
 10
-4.715877
 20
2.273683
 30
0.0
 11
-4.715866
 21
2.279143
 31
0.0
  0
LINE
  8
0
  6
CONTINUOUS
 62
     7
  5
481
 10
-4.715866
 20
2.279143
 30
0.0
 11
-4.715852
 21
2.284534
 31
0.0
  0
LINE
  8
0
  6
CONTINUOUS
 62
     7
  5
482
 10
-4.715852
 20
2.284534
 30
0.0
 11
-4.715836
 21
2.289837
 31
0.0
  0
LINE
  8
0
  6
CONTINUOUS
 62
     7
  5
483
 10
-4.715836
 20
2.289837
 30
0.0
 11
-4.715816
 21
2.295037
 31
0.0
  0
LINE
  8
0
  6
CONTINUOUS
 62
     7
  5
484
 10
-4.715816
 20
2.295037
 30
0.0
 11
-4.715794
 21
2.300116
 31
0.0
  0
LINE
  8
0
  6
CONTINUOUS
 62
     7
  5
485
 10
-4.715794
 20
2.300116
 30
0.0
 11
-4.715768
 21
2.305057
 31
0.0
  0
LINE
  8
0
  6
CONTINUOUS
 62
     7
  5
486
 10
-4.715768
 20
2.305057
 30
0.0
 11
-4.715739
 21
2.309843
 31
0.0
  0
LINE
  8
0
  6
CONTINUOUS
 62
     7
  5
487
 10
-4.715739
 20
2.309843
 30
0.0
 11
-4.715705
 21
2.314459
 31
0.0
  0
LINE
  8
0
  6
CONTINUOUS
 62
     7
  5
488
 10
-4.715705
 20
2.314459
 30
0.0
 11
-4.715668
 21
2.31889
 31
0.0
  0
LINE
  8
0
  6
CONTINUOUS
 62
     7
  5
489
 10
-4.715668
 20
2.31889
 30
0.0
 11
-4.715627
 21
2.323122
 31
0.0
  0
LINE
  8
0
  6
CONTINUOUS
 62
     7
  5
48A
 10
-4.715627
 20
2.323122
 30
0.0
 11
-4.715581
 21
2.327145
 31
0.0
  0
LINE
  8
0
  6
CONTINUOUS
 62
     7
  5
48B
 10
-4.715581
 20
2.327145
 30
0.0
 11
-4.715531
 21
2.330964
 31
0.0
  0
LINE
  8
0
  6
CONTINUOUS
 62
     7
  5
48C
 10
-4.715531
 20
2.330964
 30
0.0
 11
-4.715476
 21
2.334652
 31
0.0
  0
LINE
  8
0
  6
CONTINUOUS
 62
     7
  5
48D
 10
-4.715476
 20
2.334652
 30
0.0
 11
-4.715414
 21
2.338202
 31
0.0
  0
LINE
  8
0
  6
CONTINUOUS
 62
     7
  5
48E
 10
-4.715414
 20
2.338202
 30
0.0
 11
-4.715345
 21
2.341595
 31
0.0
  0
LINE
  8
0
  6
CONTINUOUS
 62
     7
  5
48F
 10
-4.715345
 20
2.341595
 30
0.0
 11
-4.71527
 21
2.344813
 31
0.0
  0
LINE
  8
0
  6
CONTINUOUS
 62
     7
  5
490
 10
-4.71527
 20
2.344813
 30
0.0
 11
-4.715187
 21
2.347837
 31
0.0
  0
LINE
  8
0
  6
CONTINUOUS
 62
     7
  5
491
 10
-4.715187
 20
2.347837
 30
0.0
 11
-4.715098
 21
2.350654
 31
0.0
  0
LINE
  8
0
  6
CONTINUOUS
 62
     7
  5
492
 10
-4.715098
 20
2.350654
 30
0.0
 11
-4.715001
 21
2.35325
 31
0.0
  0
LINE
  8
0
  6
CONTINUOUS
 62
     7
  5
493
 10
-4.715001
 20
2.35325
 30
0.0
 11
-4.714896
 21
2.355615
 31
0.0
  0
LINE
  8
0
  6
CONTINUOUS
 62
     7
  5
494
 10
-4.714896
 20
2.355615
 30
0.0
 11
-4.714784
 21
2.35774
 31
0.0
  0
LINE
  8
0
  6
CONTINUOUS
 62
     7
  5
495
 10
-4.714784
 20
2.35774
 30
0.0
 11
-4.714664
 21
2.359619
 31
0.0
  0
LINE
  8
0
  6
CONTINUOUS
 62
     7
  5
496
 10
-4.714664
 20
2.359619
 30
0.0
 11
-4.714538
 21
2.361248
 31
0.0
  0
LINE
  8
0
  6
CONTINUOUS
 62
     7
  5
497
 10
-4.714538
 20
2.361248
 30
0.0
 11
-4.714404
 21
2.362621
 31
0.0
  0
LINE
  8
0
  6
CONTINUOUS
 62
     7
  5
498
 10
-4.714404
 20
2.362621
 30
0.0
 11
-4.714264
 21
2.363737
 31
0.0
  0
LINE
  8
0
  6
CONTINUOUS
 62
     7
  5
499
 10
-4.714264
 20
2.363737
 30
0.0
 11
-4.714118
 21
2.364597
 31
0.0
  0
LINE
  8
0
  6
CONTINUOUS
 62
     7
  5
49A
 10
-4.714118
 20
2.364597
 30
0.0
 11
-4.713967
 21
2.365204
 31
0.0
  0
LINE
  8
0
  6
CONTINUOUS
 62
     7
  5
49B
 10
-4.713967
 20
2.365204
 30
0.0
 11
-4.71381
 21
2.365563
 31
0.0
  0
LINE
  8
0
  6
CONTINUOUS
 62
     7
  5
49C
 10
-4.71381
 20
2.365563
 30
0.0
 11
-4.71365
 21
2.36568
 31
0.0
  0
LINE
  8
0
  6
CONTINUOUS
 62
     7
  5
49D
 10
-0.236
 20
0.8055
 30
0.0
 11
0.0
 21
0.8055
 31
0.0
  0
LINE
  8
0
  6
CONTINUOUS
 62
     7
  5
49E
 10
0.0
 20
0.8055
 30
0.0
 11
0.0
 21
0.5785
 31
0.0
  0
LINE
  8
0
  6
CONTINUOUS
 62
     7
  5
49F
 10
0.0
 20
0.5785
 30
0.0
 11
-0.197
 21
0.5785
 31
0.0
  0
LINE
  8
0
  6
CONTINUOUS
 62
     7
  5
4A0
 10
-0.197
 20
0.5785
 30
0.0
 11
-0.197
 21
0.6885
 31
0.0
  0
LINE
  8
0
  6
CONTINUOUS
 62
     7
  5
4A1
 10
-0.197
 20
0.6885
 30
0.0
 11
-0.236
 21
0.6885
 31
0.0
  0
LINE
  8
0
  6
CONTINUOUS
 62
     7
  5
4A2
 10
-0.197
 20
-0.6885
 30
0.0
 11
-0.197
 21
-0.60588
 31
0.0
  0
LINE
  8
0
  6
CONTINUOUS
 62
     7
  5
4A3
 10
-0.197
 20
-0.60588
 30
0.0
 11
-0.1775
 21
-0.60588
 31
0.0
  0
LINE
  8
0
  6
CONTINUOUS
 62
     7
  5
4A4
 10
-0.1775
 20
-0.60588
 30
0.0
 11
0.0
 21
-0.70836
 31
0.0
  0
LINE
  8
0
  6
CONTINUOUS
 62
     7
  5
4A5
 10
0.0
 20
-0.70836
 30
0.0
 11
0.0
 21
-0.9225
 31
0.0
  0
LINE
  8
0
  6
CONTINUOUS
 62
     7
  5
4A6
 10
0.0
 20
-0.9225
 30
0.0
 11
-0.236
 21
-0.9225
 31
0.0
  0
LINE
  8
0
  6
CONTINUOUS
 62
     7
  5
4A7
 10
-0.236
 20
-0.6885
 30
0.0
 11
-0.197
 21
-0.6885
 31
0.0
  0
LINE
  8
0
  6
CONTINUOUS
 62
     7
  5
4A8
 10
-4.5981
 20
-2.559
 30
0.0
 11
-4.650456
 21
-2.559
 31
0.0
  0
LINE
  8
0
  6
CONTINUOUS
 62
     7
  5
4A9
 10
-4.650456
 20
-2.559
 30
0.0
 11
-4.716
 21
-2.559
 31
0.0
  0
LINE
  8
0
  6
CONTINUOUS
 62
     7
  5
4AA
 10
-4.5981
 20
1.625
 30
0.0
 11
-4.650456
 21
1.625
 31
0.0
  0
LINE
  8
0
  6
CONTINUOUS
 62
     7
  5
4AB
 10
-4.650456
 20
-0.875
 30
0.0
 11
-4.650456
 21
1.625
 31
0.0
  0
LINE
  8
0
  6
CONTINUOUS
 62
     7
  5
4AC
 10
-4.5981
 20
-0.875
 30
0.0
 11
-4.650456
 21
-0.875
 31
0.0
  0
LINE
  8
0
  6
CONTINUOUS
 62
     7
  5
4AD
 10
-4.650456
 20
1.625
 30
0.0
 11
-4.716
 21
1.625
 31
0.0
  0
LINE
  8
0
  6
CONTINUOUS
 62
     7
  5
4AE
 10
-4.650456
 20
-0.875
 30
0.0
 11
-4.716
 21
-0.875
 31
0.0
  0
LINE
  8
0
  6
CONTINUOUS
 62
     7
  5
4AF
 10
-4.650456
 20
1.75
 30
0.0
 11
-4.5981
 21
1.75
 31
0.0
  0
LINE
  8
0
  6
CONTINUOUS
 62
     7
  5
4B0
 10
-4.716
 20
1.75
 30
0.0
 11
-4.650456
 21
1.75
 31
0.0
  0
LINE
  8
0
  6
CONTINUOUS
 62
     7
  5
4B1
 10
-4.650456
 20
2.559
 30
0.0
 11
-4.650456
 21
1.75
 31
0.0
  0
LINE
  8
0
  6
CONTINUOUS
 62
     7
  5
4B2
 10
-4.5981
 20
-1.75
 30
0.0
 11
-4.650456
 21
-1.75
 31
0.0
  0
LINE
  8
0
  6
CONTINUOUS
 62
     7
  5
4B3
 10
-4.650456
 20
-2.559
 30
0.0
 11
-4.650456
 21
-1.75
 31
0.0
  0
LINE
  8
0
  6
CONTINUOUS
 62
     7
  5
4B4
 10
-4.650456
 20
-1.75
 30
0.0
 11
-4.716
 21
-1.75
 31
0.0
  0
LINE
  8
0
  6
CONTINUOUS
 62
     7
  5
4B5
 10
-4.716
 20
1.625
 30
0.0
 11
-4.716
 21
1.435
 31
0.0
  0
LINE
  8
0
  6
CONTINUOUS
 62
     7
  5
4B6
 10
-4.716
 20
-0.535
 30
0.0
 11
-4.716
 21
-0.875
 31
0.0
  0
LINE
  8
0
  6
CONTINUOUS
 62
     7
  5
4B7
 10
-4.716
 20
2.559
 30
0.0
 11
-4.716
 21
1.75
 31
0.0
  0
LINE
  8
0
  6
CONTINUOUS
 62
     7
  5
4B8
 10
-4.716
 20
-1.75
 30
0.0
 11
-4.716
 21
-2.559
 31
0.0
  0
LINE
  8
0
  6
CONTINUOUS
 62
     3
  5
4B9
 10
0.118
 20
0.0
 30
0.0
 11
-4.834
 21
0.0
 31
0.0
  0
ENDSEC
  0
EOF
