999
DXF file: C:\Users\sesa63760\Dev\_Creo\CAD\MCADPE0010438_3D-CAD\drw0001_1.dxf
999
Pro/ENGINEER 2019471 by Parametric Technology Corporation
  0
SECTION
  2
HEADER
  9
$ACADVER
  1
AC1024
  9
$DWGCODEPAGE
  3
ANSI_1252
  9
$EXTMAX
 10
55.4668081648
 20
78.4459144045
 30
0.0
  9
$EXTMIN
 10
0.0
 20
0.0
 30
0.0
  9
$LIMMIN
 10
0.0
 20
0.0
  9
$LIMMAX
 10
55.4668081648
 20
78.4459144045
  9
$VIEWCTR
 10
27.7334040824
 20
39.2229572023
  9
$VIEWSIZE
 40
78.4459144045
  9
$CLAYER
  8
0
  9
$LTSCALE
 40
5.1135114575
  9
$CELTYPE
  6
BYLAYER
  9
$DIMSCALE
 40
1.0
  9
$DIMASZ
 40
0.6603191448
  9
$DIMEXO
 40
1.0
  9
$DIMDLI
 40
3.5329715524
  9
$DIMEXE
 40
1.0
  9
$DIMCEN
 40
0.8367564203
  9
$DIMLFAC
 40
1.0
  9
$DIMBLK
  1
_FILLED
  9
$DIMALT
 70
0
  9
$DIMALTF
 40
0.0393700787
  9
$DIMTXT
 40
0.9244468027
  9
$DIMTOL
 70
1
  9
$DIMLIM
 70
0
  9
$DIMTFAC
 40
1.0
  9
$DIMTP
 40
0.01
  9
$DIMTM
 40
0.01
  9
$DIMGAP
 40
0.625
  9
$DIMDSEP
 70
46
  9
$AUNITS
 70
0
  9
$PDMODE
 70
3
  9
$PDSIZE
 40
0.3125
  9
$HANDSEED
  5
274
  9
$TILEMODE
 70
1
  9
$MEASUREMENT
 70
1
  9
$INSUNITS
 70
4
  0
ENDSEC
  0
SECTION
  2
CLASSES
  0
CLASS
  1
ACDBDICTIONARYWDFLT
  2
AcDbDictionaryWithDefault
  3
AutoCAD 2000
 90
0
 91
1
280
0
281
0
  0
CLASS
  1
ACDBPLACEHOLDER
  2
AcDbPlaceHolder
  3
AutoCAD 2000
 90
0
 91
1
280
0
281
0
  0
CLASS
  1
LAYOUT
  2
AcDbLayout
  3
AutoCAD 2000
 90
0
 91
0
280
0
281
0
  0
ENDSEC
  0
SECTION
  2
TABLES
  0
TABLE
  2
VPORT
  5
8
100
AcDbSymbolTable
 70
2
  0
VPORT
  5
1F4
100
AcDbSymbolTableRecord
100
AcDbViewportTableRecord
  2
*ACTIVE
 70
0
 10
0.0
 20
0.0
 11
1.0
 21
1.0
 12
27.7334040824
 22
39.2229572023
 13
0.0
 23
0.0
 14
1.0
 24
1.0
 15
0.0
 25
0.0
 16
0.0
 26
0.0
 36
1.0
 17
0.0
 27
0.0
 37
0.0
 40
78.4459144045
 41
0.7070707071
 42
50.0
 43
0.0
 44
0.0
 50
0.0
 51
0.0
 71
0
 72
100
 73
1
 74
1
 75
0
 76
0
 77
0
 78
0
  0
ENDTAB
  0
TABLE
  2
LTYPE
  5
5
100
AcDbSymbolTable
 70
6
  0
LTYPE
  5
14
100
AcDbSymbolTableRecord
100
AcDbLinetypeTableRecord
  2
BYBLOCK
 70
0
  3

 72
65
 73
0
 40
0.0
  0
LTYPE
  5
15
100
AcDbSymbolTableRecord
100
AcDbLinetypeTableRecord
  2
BYLAYER
 70
0
  3

 72
65
 73
0
 40
0.0
  0
LTYPE
  5
16
100
AcDbSymbolTableRecord
100
AcDbLinetypeTableRecord
  2
CONTINUOUS
 70
64
  3
Solid line
 72
65
 73
0
 40
0.0
  0
LTYPE
  5
1F5
100
AcDbSymbolTableRecord
100
AcDbLinetypeTableRecord
  2
CENTER
 70
64
  3
____ _ ____ _ ____ _ ____ _ ____ _ ____ _ ____
 72
65
 73
4
 40
0.6
 49
0.375
 74
0
 49
-0.075
 74
0
 49
0.075
 74
0
 49
-0.075
 74
0
  0
LTYPE
  5
1F6
100
AcDbSymbolTableRecord
100
AcDbLinetypeTableRecord
  2
HIDDEN
 70
64
  3
- - - - - - - - - - - - - - - - - - - -
 72
65
 73
2
 40
0.2
 49
0.1
 74
0
 49
-0.1
 74
0
  0
LTYPE
  5
1F7
100
AcDbSymbolTableRecord
100
AcDbLinetypeTableRecord
  2
PHANTOM
 70
64
  3
_____ _ _ _____ _ _ _____ _ _ _____
 72
65
 73
6
 40
0.8
 49
0.45
 74
0
 49
-0.05
 74
0
 49
0.1
 74
0
 49
-0.05
 74
0
 49
0.1
 74
0
 49
-0.05
 74
0
  0
LTYPE
  5
1F8
100
AcDbSymbolTableRecord
100
AcDbLinetypeTableRecord
  2
DOT
 70
64
  3
. . . . . . . . . . . . . . . . . . . .
 72
65
 73
2
 40
0.2
 49
0.1
 74
0
 49
-0.1
 74
0
  0
LTYPE
  5
1F9
100
AcDbSymbolTableRecord
100
AcDbLinetypeTableRecord
  2
DASHED
 70
64
  3
- - - - - - - - - - - - - - - - - - - -
 72
65
 73
2
 40
0.2
 49
0.1
 74
0
 49
-0.1
 74
0
  0
ENDTAB
  0
TABLE
  2
LAYER
  5
2
100
AcDbSymbolTable
 70
36
  0
LAYER
  5
10
100
AcDbSymbolTableRecord
100
AcDbLayerTableRecord
  2
0
 70
0
 62
7
  6
CONTINUOUS
370
-3
390
F
  0
LAYER
  5
1FA
100
AcDbSymbolTableRecord
100
AcDbLayerTableRecord
  2
DEFAULT_1
 70
0
 62
7
  6
CENTER
370
-3
390
F
  0
LAYER
  5
1FB
100
AcDbSymbolTableRecord
100
AcDbLayerTableRecord
  2
DEFAULT_2
 70
0
 62
7
  6
HIDDEN
370
-3
390
F
  0
LAYER
  5
1FC
100
AcDbSymbolTableRecord
100
AcDbLayerTableRecord
  2
DEFAULT_3
 70
0
 62
7
  6
PHANTOM
370
-3
390
F
  0
LAYER
  5
1FD
100
AcDbSymbolTableRecord
100
AcDbLayerTableRecord
  2
00_COMPONENTS
 70
0
 62
7
  6
CONTINUOUS
370
-3
390
F
  0
LAYER
  5
1FE
100
AcDbSymbolTableRecord
100
AcDbLayerTableRecord
  2
01_1_DEFAULT_DATUMS
 70
0
 62
7
  6
CONTINUOUS
370
-3
390
F
  0
LAYER
  5
1FF
100
AcDbSymbolTableRecord
100
AcDbLayerTableRecord
  2
01_PLANES
 70
0
 62
7
  6
CONTINUOUS
370
-3
390
F
  0
LAYER
  5
200
100
AcDbSymbolTableRecord
100
AcDbLayerTableRecord
  2
02_COORD_SYS
 70
0
 62
7
  6
CONTINUOUS
370
-3
390
F
  0
LAYER
  5
201
100
AcDbSymbolTableRecord
100
AcDbLayerTableRecord
  2
03_AXES
 70
0
 62
7
  6
CONTINUOUS
370
-3
390
F
  0
LAYER
  5
202
100
AcDbSymbolTableRecord
100
AcDbLayerTableRecord
  2
04_POINTS
 70
0
 62
7
  6
CONTINUOUS
370
-3
390
F
  0
LAYER
  5
203
100
AcDbSymbolTableRecord
100
AcDbLayerTableRecord
  2
05_CURVES
 70
0
 62
7
  6
CONTINUOUS
370
-3
390
F
  0
LAYER
  5
204
100
AcDbSymbolTableRecord
100
AcDbLayerTableRecord
  2
06_SURFS
 70
0
 62
7
  6
CONTINUOUS
370
-3
390
F
  0
LAYER
  5
205
100
AcDbSymbolTableRecord
100
AcDbLayerTableRecord
  2
07_COSMETICS
 70
0
 62
7
  6
CONTINUOUS
370
-3
390
F
  0
LAYER
  5
206
100
AcDbSymbolTableRecord
100
AcDbLayerTableRecord
  2
10_NOTES
 70
0
 62
7
  6
CONTINUOUS
370
-3
390
F
  0
LAYER
  5
207
100
AcDbSymbolTableRecord
100
AcDbLayerTableRecord
  2
11_NOTES_PUB
 70
0
 62
7
  6
CONTINUOUS
370
-3
390
F
  0
LAYER
  5
208
100
AcDbSymbolTableRecord
100
AcDbLayerTableRecord
  2
13_REF_GTOL
 70
0
 62
7
  6
CONTINUOUS
370
-3
390
F
  0
LAYER
  5
209
100
AcDbSymbolTableRecord
100
AcDbLayerTableRecord
  2
16_MISC
 70
0
 62
7
  6
CONTINUOUS
370
-3
390
F
  0
LAYER
  5
20A
100
AcDbSymbolTableRecord
100
AcDbLayerTableRecord
  2
17_NO_PRINT
 70
0
 62
7
  6
CONTINUOUS
370
-3
390
F
  0
LAYER
  5
20B
100
AcDbSymbolTableRecord
100
AcDbLayerTableRecord
  2
18_DATUM_CAMS_JOINTS
 70
0
 62
7
  6
CONTINUOUS
370
-3
390
F
  0
LAYER
  5
20C
100
AcDbSymbolTableRecord
100
AcDbLayerTableRecord
  2
19_DATUM_FUNCTIONAL
 70
0
 62
7
  6
CONTINUOUS
370
-3
390
F
  0
LAYER
  5
20D
100
AcDbSymbolTableRecord
100
AcDbLayerTableRecord
  2
20_DATUM_KINEMATIC_SCHEME
 70
0
 62
7
  6
CONTINUOUS
370
-3
390
F
  0
ENDTAB
  0
TABLE
  2
STYLE
  5
3
100
AcDbSymbolTable
 70
1
  0
STYLE
  5
11
100
AcDbSymbolTableRecord
100
AcDbTextStyleTableRecord
  2
STANDARD
 70
0
 40
0.0
 41
1.0
 50
0.0
 71
0
 42
0.2
  3
ARIAL.TTF
  4

  0
STYLE
  5
20E
100
AcDbSymbolTableRecord
100
AcDbTextStyleTableRecord
  2
TEXTSTYLE_1
 70
0
 40
0.0
 41
0.8
 50
0.0
 71
0
 42
0.2
  3
gdt
  4

  0
ENDTAB
  0
TABLE
  2
VIEW
  5
6
100
AcDbSymbolTable
 70
0
  0
ENDTAB
  0
TABLE
  2
UCS
  5
7
100
AcDbSymbolTable
 70
0
  0
ENDTAB
  0
TABLE
  2
APPID
  5
9
100
AcDbSymbolTable
 70
1
  0
APPID
  5
20F
100
AcDbSymbolTableRecord
100
AcDbRegAppTableRecord
  2
ACAD
 70
0
  0
ENDTAB
  0
TABLE
  2
BLOCK_RECORD
  5
1
100
AcDbSymbolTable
 70
0
  0
BLOCK_RECORD
  5
210
100
AcDbSymbolTableRecord
100
AcDbBlockTableRecord
  2
*Model_Space
  0
BLOCK_RECORD
  5
211
100
AcDbSymbolTableRecord
100
AcDbBlockTableRecord
  2
*Paper_Space
  0
BLOCK_RECORD
  5
212
100
AcDbSymbolTableRecord
100
AcDbBlockTableRecord
  2
_FILLED
  0
ENDTAB
  0
TABLE
  2
DIMSTYLE
  5
A
100
AcDbSymbolTable
 70
1
100
AcDbDimStyleTable
 71
0
  0
DIMSTYLE
105
213
100
AcDbSymbolTableRecord
100
AcDbDimStyleTableRecord
  2
STANDARD
 70
0
  3

  4

 40
1.0
 41
0.6603191448
 42
1.0
 43
0.38
 44
1.0
 45
0.0
 46
0.0
 47
0.01
 48
0.01
140
0.9244468027
141
0.09
142
0.0
143
25.4
144
1.0
145
0.0
146
1.0
147
0.625
 71
1
 72
0
 73
0
 74
0
 75
0
 76
0
 77
1
 78
8
 79
2
170
0
171
1
172
0
173
0
174
0
175
0
176
0
177
0
178
0
270
2
179
2
271
2
272
2
273
2
274
2
275
0
280
0
281
0
282
0
283
1
284
8
285
0
286
0
287
3
288
0
340
11
278
46
341
212
342
212
343
212
344
212
  0
ENDTAB
  0
ENDSEC
  0
SECTION
  2
BLOCKS
  0
BLOCK
  5
20
100
AcDbEntity
  8
0
100
AcDbBlockBegin
  2
*Model_Space
 70
0
 10
0.0
 20
0.0
 30
0.0
  3
*Model_Space
  1

  0
ENDBLK
  5
21
100
AcDbEntity
  8
0
100
AcDbBlockEnd
  0
BLOCK
  5
1C
100
AcDbEntity
  8
0
100
AcDbBlockBegin
  2
*Paper_Space
 70
0
 10
0.0
 20
0.0
 30
0.0
  3
*Paper_Space
  1

  0
ENDBLK
  5
1D
100
AcDbEntity
  8
0
100
AcDbBlockEnd
  0
BLOCK
  5
214
100
AcDbEntity
  8
0
100
AcDbBlockBegin
  2
_FILLED
 70
64
 10
0.0
 20
0.0
  3
_FILLED
  1

  0
SOLID
  5
215
100
AcDbEntity
  8
0
  6
BYBLOCK
 62
0
100
AcDbTrace
 10
0.0
 20
0.0
 11
-1.0
 21
0.25
 12
-1.0
 22
-0.25
 13
-1.0
 23
-0.25
  0
ENDBLK
  5
216
100
AcDbEntity
  8
0
  6
BYBLOCK
 62
0
100
AcDbBlockEnd
  0
ENDSEC
  0
SECTION
  2
ENTITIES
  0
LINE
  5
217
100
AcDbEntity
  8
0
100
AcDbLine
 62
7
  6
BYLAYER
 10
9.2214004292
 20
11.0148035664
 11
17.6560499744
 21
6.1449631443
  0
LINE
  5
218
100
AcDbEntity
  8
0
100
AcDbLine
 62
7
  6
BYLAYER
 10
10.3628299866
 20
11.0322388099
 11
8.8071885913
 21
11.9303684698
  0
LINE
  5
219
100
AcDbEntity
  8
0
100
AcDbLine
 62
7
  6
BYLAYER
 10
36.214474317
 20
72.3933492086
 11
17.8428634448
 21
61.7865580401
  0
LINE
  5
21A
100
AcDbEntity
  8
0
100
AcDbLine
 62
7
  6
BYLAYER
 10
37.7701157123
 20
71.4952195487
 11
19.3985048401
 21
60.8884283801
  0
LINE
  5
21B
100
AcDbEntity
  8
0
100
AcDbLine
 62
7
  6
BYLAYER
 10
9.2214004292
 20
47.5300759169
 11
16.8428676082
 21
60.7309175787
  0
LINE
  5
21C
100
AcDbEntity
  8
0
100
AcDbLine
 62
7
  6
BYLAYER
 10
8.8071885913
 20
11.9303684698
 11
8.8071885913
 21
46.1362232363
  0
LINE
  5
21D
100
AcDbEntity
  8
0
100
AcDbLine
 62
7
  6
BYLAYER
 10
10.3628299866
 20
11.0322388099
 11
10.3628299866
 21
45.2380935763
  0
LINE
  5
21E
100
AcDbEntity
  8
0
100
AcDbLine
 62
7
  6
BYLAYER
 10
18.3985090035
 20
59.8327879187
 11
10.7770418245
 21
46.6319462569
  0
LINE
  5
21F
100
AcDbEntity
  8
0
100
AcDbLine
 62
7
  6
BYLAYER
 10
44.3700780448
 20
23.8030844982
 11
44.589148766
 21
23.8115380956
  0
LINE
  5
220
100
AcDbEntity
  8
0
100
AcDbLine
 62
7
  6
BYLAYER
 10
42.6774753473
 20
60.2029762264
 11
43.3845791845
 21
60.6112203803
  0
LINE
  5
221
100
AcDbEntity
  8
0
100
AcDbLine
 62
7
  6
BYLAYER
 10
45.378189456
 20
59.5984935312
 11
44.8038120912
 21
59.2668785845
  0
LINE
  5
222
100
AcDbEntity
  8
0
100
AcDbLine
 62
7
  6
BYLAYER
 10
43.3234809767
 20
19.7618945888
 11
44.879122372
 21
18.8637649288
  0
LINE
  5
223
100
AcDbEntity
  8
0
100
AcDbLine
 62
7
  6
BYLAYER
 10
44.6927212834
 20
19.2757724619
 11
43.1370798881
 21
20.1739021218
  0
LINE
  5
224
100
AcDbEntity
  8
0
100
AcDbLine
 62
7
  6
BYLAYER
 10
44.336688155
 20
23.7882246014
 11
44.6927212834
 21
23.5826734291
  0
LINE
  5
225
100
AcDbEntity
  8
0
100
AcDbLine
 62
7
  6
BYLAYER
 10
40.1432333256
 20
31.1949904498
 11
40.0587684389
 21
31.2184394519
  0
LINE
  5
226
100
AcDbEntity
  8
0
100
AcDbLine
 62
7
  6
BYLAYER
 10
8.8071885913
 20
46.1362232363
 11
10.3628299866
 21
45.2380935763
  0
LINE
  5
227
100
AcDbEntity
  8
0
100
AcDbLine
 62
7
  6
BYLAYER
 10
10.7770418245
 20
46.6319462569
 11
9.2214004292
 21
47.5300759169
  0
LINE
  5
228
100
AcDbEntity
  8
0
100
AcDbLine
 62
7
  6
BYLAYER
 10
40.0280030177
 20
31.261517194
 11
40.1432333256
 21
31.1949904498
  0
LINE
  5
229
100
AcDbEntity
  8
0
100
AcDbLine
 62
7
  6
BYLAYER
 10
46.1893456541
 20
60.362137571
 11
47.2196108941
 21
61.7899677328
  0
LINE
  5
22A
100
AcDbEntity
  8
0
100
AcDbLine
 62
7
  6
BYLAYER
 10
47.1068790133
 20
33.8755325009
 11
46.927169409
 21
33.9473649382
  0
LINE
  5
22B
100
AcDbEntity
  8
0
100
AcDbLine
 62
7
  6
BYLAYER
 10
45.3715280136
 20
34.8454945981
 11
45.551237618
 21
34.7736621609
  0
LINE
  5
22C
100
AcDbEntity
  8
0
100
AcDbLine
 62
7
  6
BYLAYER
 10
42.8896064985
 20
31.9928155982
 11
42.1165711782
 21
32.4391176517
  0
LINE
  5
22D
100
AcDbEntity
  8
0
100
AcDbLine
 62
7
  6
BYLAYER
 10
42.6103621974
 20
32.8565981784
 11
43.4980538627
 21
32.3441007508
  0
LINE
  5
22E
100
AcDbEntity
  8
0
100
AcDbLine
 62
7
  6
BYLAYER
 10
43.6389364814
 20
32.6029719414
 11
42.6774753473
 21
33.1580592283
  0
LINE
  5
22F
100
AcDbEntity
  8
0
100
AcDbLine
 62
7
  6
BYLAYER
 10
42.6774753473
 20
33.5451194946
 11
43.606798636
 21
33.0085865818
  0
LINE
  5
230
100
AcDbEntity
  8
0
100
AcDbLine
 62
7
  6
BYLAYER
 10
43.7124606
 20
33.2027399748
 11
42.6774753473
 21
33.800275471
  0
LINE
  5
231
100
AcDbEntity
  8
0
100
AcDbLine
 62
7
  6
BYLAYER
 10
42.6774753473
 20
34.1209646859
 11
43.9901895772
 21
33.3630859174
  0
LINE
  5
232
100
AcDbEntity
  8
0
100
AcDbLine
 62
7
  6
BYLAYER
 10
45.1202026534
 20
34.8972869467
 11
46.6758440487
 21
33.9991572867
  0
LINE
  5
233
100
AcDbEntity
  8
0
100
AcDbLine
 62
7
  6
BYLAYER
 10
45.3715280137
 20
34.8454945981
 11
46.927169409
 21
33.9473649382
  0
LINE
  5
234
100
AcDbEntity
  8
0
100
AcDbLine
 62
7
  6
BYLAYER
 10
45.5512705955
 20
34.7737193426
 11
47.1069119908
 21
33.8755896827
  0
LINE
  5
235
100
AcDbEntity
  8
0
100
AcDbLine
 62
7
  6
BYLAYER
 10
38.434852324
 20
19.2962474564
 11
38.434852324
 21
20.7859607579
  0
LINE
  5
236
100
AcDbEntity
  8
0
100
AcDbLine
 62
7
  6
BYLAYER
 10
44.589148766
 20
23.8115380956
 11
44.6927212834
 21
23.5846344724
  0
LINE
  5
237
100
AcDbEntity
  8
0
100
AcDbLine
 62
7
  6
BYLAYER
 10
43.7124606
 20
33.2027399748
 11
43.9901895772
 21
33.3630859174
  0
LINE
  5
238
100
AcDbEntity
  8
0
100
AcDbLine
 62
7
  6
BYLAYER
 10
16.8428676082
 20
60.7309175787
 11
18.3985090035
 21
59.8327879187
  0
LINE
  5
239
100
AcDbEntity
  8
0
100
AcDbLine
 62
7
  6
BYLAYER
 10
43.606798636
 20
33.0085865818
 11
43.6389364814
 21
32.6029719414
  0
LINE
  5
23A
100
AcDbEntity
  8
0
100
AcDbLine
 62
7
  6
BYLAYER
 10
42.6774753473
 20
33.1336535028
 11
42.6774753473
 21
60.2029762264
  0
LINE
  5
23B
100
AcDbEntity
  8
0
100
AcDbLine
 62
7
  6
BYLAYER
 10
43.1370798881
 20
23.2565947503
 11
43.1370798881
 21
20.1739021218
  0
LINE
  5
23C
100
AcDbEntity
  8
0
100
AcDbLine
 62
7
  6
BYLAYER
 10
43.4980538627
 20
32.3441007508
 11
42.8896064984
 21
31.9928155981
  0
LINE
  5
23D
100
AcDbEntity
  8
0
100
AcDbLine
 62
7
  6
BYLAYER
 10
19.3985048401
 20
60.8884283801
 11
17.8428634448
 21
61.7865580401
  0
LINE
  5
23E
100
AcDbEntity
  8
0
100
AcDbLine
 62
7
  6
BYLAYER
 10
44.6927212834
 20
23.5846344724
 11
44.6927212834
 21
19.2757724619
  0
LINE
  5
23F
100
AcDbEntity
  8
0
100
AcDbLine
 62
7
  6
BYLAYER
 10
47.5211366322
 20
62.7428925472
 11
47.5211366322
 21
62.6328922839
  0
LINE
  5
240
100
AcDbEntity
  8
0
100
AcDbLine
 62
7
  6
BYLAYER
 10
47.5211366322
 20
20.9903993191
 11
47.5211366322
 21
32.9600173871
  0
LINE
  5
241
100
AcDbEntity
  8
0
100
AcDbLine
 62
7
  6
BYLAYER
 10
43.5165265569
 20
60.4235020468
 11
43.6766476867
 21
59.8259134981
  0
LINE
  5
242
100
AcDbEntity
  8
0
100
AcDbLine
 62
7
  6
BYLAYER
 10
18.656045811
 20
6.2440115212
 11
37.0206446496
 21
16.8467543144
  0
LINE
  5
243
100
AcDbEntity
  8
0
100
AcDbLine
 62
7
  6
BYLAYER
 10
42.7835157094
 20
60.2641982925
 11
44.553813132
 21
59.2421164902
  0
LINE
  5
244
100
AcDbEntity
  8
0
100
AcDbLine
 62
7
  6
BYLAYER
 10
43.6766476867
 20
59.8259134981
 11
42.8505067872
 21
60.3028753785
  0
LINE
  5
245
100
AcDbEntity
  8
0
100
AcDbLine
 62
7
  6
BYLAYER
 10
43.2879811517
 20
60.5554498129
 11
43.5165265569
 21
60.4235020468
  0
LINE
  5
246
100
AcDbEntity
  8
0
100
AcDbLine
 62
7
  6
BYLAYER
 10
43.3845791845
 20
60.6112203803
 11
43.5165265569
 21
60.4235020468
  0
LINE
  5
247
100
AcDbEntity
  8
0
100
AcDbLine
 62
7
  6
BYLAYER
 10
45.3291147369
 20
18.9083400249
 11
46.814032795
 21
19.7656527481
  0
LINE
  5
248
100
AcDbEntity
  8
0
100
AcDbLine
 62
7
  6
BYLAYER
 10
42.9956720741
 20
65.693951807
 11
38.9948554846
 21
71.3858167479
  0
LINE
  5
249
100
AcDbEntity
  8
0
100
AcDbLine
 62
7
  6
BYLAYER
 10
47.3140307133
 20
63.200674999
 11
42.9956720741
 21
65.693951807
  0
LINE
  5
24A
100
AcDbEntity
  8
0
100
AcDbLine
 62
7
  6
BYLAYER
 10
38.9948554846
 20
71.3858167479
 11
38.7700963311
 21
71.594271136
  0
LINE
  5
24B
100
AcDbEntity
  8
0
100
AcDbLine
 62
7
  6
BYLAYER
 10
36.214474317
 20
72.3933492086
 11
37.7701157123
 21
71.4952195487
  0
LINE
  5
24C
100
AcDbEntity
  8
0
100
AcDbLine
 62
7
  6
BYLAYER
 10
37.21445735
 20
72.4924049777
 11
38.7700987453
 21
71.5942753178
  0
ARC
  5
24D
100
AcDbEntity
  8
0
100
AcDbCircle
 62
7
  6
BYLAYER
 10
44.5351945271
 20
31.4228196722
 40
3.5233730074
100
AcDbArc
 50
76.2687926537
 51
80.4425543854
  0
ARC
  5
24E
100
AcDbEntity
  8
0
100
AcDbCircle
 62
7
  6
BYLAYER
 10
46.0963615089
 20
30.5515032394
 40
3.4960146516
100
AcDbArc
 50
76.2524542818
 51
80.4588927573
  0
ARC
  5
24F
100
AcDbEntity
  8
0
100
AcDbCircle
 62
7
  6
BYLAYER
 10
40.1422035421
 20
31.3634564154
 40
0.16743741
100
AcDbArc
 50
231.5653986519
 51
240.0861075219
  0
SPLINE
  5
250
100
AcDbEntity
  8
0
100
AcDbSpline
 62
7
  6
BYLAYER
 70
0
 71
3
 72
12
 73
8
 74
0
 42
0.0000001
 43
0.0000001
 44
0.0000000001
 40
0.0
 40
0.0
 40
0.0
 40
0.0
 40
0.2894788785
 40
0.5486695713
 40
0.7816056051
 40
0.8917954376
 40
1.0
 40
1.0
 40
1.0
 40
1.0
 10
36.214474317
 20
72.3933492086
 30
0.0
 10
36.3022295271
 20
72.4440144003
 30
0.0
 10
36.4768491649
 20
72.5270453552
 30
0.0
 10
36.7449883621
 20
72.5919297304
 30
0.0
 10
36.9591444981
 20
72.5862403104
 30
0.0
 10
37.1120077211
 20
72.5439215605
 30
0.0
 10
37.1816575514
 20
72.5113471413
 30
0.0
 10
37.2144549426
 20
72.4924008077
 30
0.0
  0
SPLINE
  5
251
100
AcDbEntity
  8
0
100
AcDbSpline
 62
7
  6
BYLAYER
 70
0
 71
3
 72
11
 73
7
 74
0
 42
0.0000001
 43
0.0000001
 44
0.0000000001
 40
0.0
 40
0.0
 40
0.0
 40
0.0
 40
0.2659716567
 40
0.5253523206
 40
0.7717469624
 40
1.0
 40
1.0
 40
1.0
 40
1.0
 10
16.8428676082
 20
60.7309175787
 30
0.0
 10
16.9079830961
 20
60.8437015382
 30
0.0
 10
17.0492794277
 20
61.0594249678
 30
0.0
 10
17.2916625442
 20
61.3504738102
 30
0.0
 10
17.5548915798
 20
61.5965844642
 30
0.0
 10
17.7460738682
 20
61.7306768855
 30
0.0
 10
17.8428634448
 20
61.7865580401
 30
0.0
  0
SPLINE
  5
252
100
AcDbEntity
  8
0
100
AcDbSpline
 62
7
  6
BYLAYER
 70
0
 71
3
 72
11
 73
7
 74
0
 42
0.0000001
 43
0.0000001
 44
0.0000000001
 40
0.0
 40
0.0
 40
0.0
 40
0.0
 40
0.2282541849
 40
0.4746493001
 40
0.7340296028
 40
1.0
 40
1.0
 40
1.0
 40
1.0
 10
8.8071885913
 20
46.1362232363
 30
0.0
 10
8.8071885913
 20
46.2479873243
 30
0.0
 10
8.8277251429
 20
46.4806044832
 30
0.0
 10
8.9092484751
 20
46.8316258736
 30
0.0
 10
9.0401117712
 20
47.1870625076
 30
0.0
 10
9.156284832
 20
47.4172917681
 30
0.0
 10
9.2214004292
 20
47.5300759169
 30
0.0
  0
SPLINE
  5
253
100
AcDbEntity
  8
0
100
AcDbSpline
 62
7
  6
BYLAYER
 70
0
 71
3
 72
13
 73
9
 74
0
 42
0.0000001
 43
0.0000001
 44
0.0000000001
 40
0.0
 40
0.0
 40
0.0
 40
0.0
 40
0.1079634953
 40
0.2181695045
 40
0.3322577577
 40
0.4516952607
 40
0.710692601
 40
1.0
 40
1.0
 40
1.0
 40
1.0
 10
9.2214004292
 20
11.0148035664
 30
0.0
 10
9.1886507933
 20
11.033712118
 30
0.0
 10
9.125663009
 20
11.0777466316
 30
0.0
 10
9.042347225
 20
11.1597001452
 30
0.0
 10
8.9706105373
 20
11.2569915941
 30
0.0
 10
8.8893608559
 20
11.4097786618
 30
0.0
 10
8.8225244567
 20
11.6364121616
 30
0.0
 10
8.8071885913
 20
11.8290329844
 30
0.0
 10
8.8071885913
 20
11.9303684698
 30
0.0
  0
SPLINE
  5
254
100
AcDbEntity
  8
0
100
AcDbSpline
 62
7
  6
BYLAYER
 70
0
 71
3
 72
11
 73
7
 74
0
 42
0.0000001
 43
0.0000001
 44
0.0000000001
 40
0.0
 40
0.0
 40
0.0
 40
0.0
 40
0.2177456295
 40
0.4508837762
 40
0.7104602913
 40
1.0
 40
1.0
 40
1.0
 40
1.0
 10
44.8791475502
 20
18.8638085403
 30
0.0
 10
44.9088287478
 20
18.8466724857
 30
0.0
 10
44.9770035189
 20
18.8218446376
 30
0.0
 10
45.0903404138
 20
18.8189985855
 30
0.0
 10
45.2110685731
 20
18.8482213618
 30
0.0
 10
45.2896473597
 20
18.8855536601
 30
0.0
 10
45.3291147369
 20
18.9083400249
 30
0.0
  0
SPLINE
  5
255
100
AcDbEntity
  8
0
100
AcDbSpline
 62
7
  6
BYLAYER
 70
0
 71
3
 72
11
 73
7
 74
0
 42
0.0000001
 43
0.0000001
 44
0.0000000001
 40
0.0
 40
0.0
 40
0.0
 40
0.0
 40
0.2177442246
 40
0.4508817658
 40
0.7104588047
 40
1.0
 40
1.0
 40
1.0
 40
1.0
 10
43.3235061555
 20
19.7619381998
 30
0.0
 10
43.2938239826
 20
19.7790748385
 30
0.0
 10
43.2382323828
 20
19.8257029405
 30
0.0
 10
43.179096524
 20
19.9224359912
 30
0.0
 10
43.144038671
 20
20.0416059968
 30
0.0
 10
43.1370798881
 20
20.1283271487
 30
0.0
 10
43.1370798881
 20
20.1739021218
 30
0.0
  0
SPLINE
  5
256
100
AcDbEntity
  8
0
100
AcDbSpline
 62
7
  6
BYLAYER
 70
0
 71
3
 72
16
 73
12
 74
0
 42
0.0000001
 43
0.0000001
 44
0.0000000001
 40
0.0
 40
0.0
 40
0.0
 40
0.0
 40
0.0431806711
 40
0.0888122309
 40
0.1910408042
 40
0.3104841493
 40
0.4448062702
 40
0.5883107654
 40
0.7335593155
 40
0.8731318137
 40
1.0
 40
1.0
 40
1.0
 40
1.0
 10
40.0381209411
 20
31.232299645
 30
0.0
 10
40.0271705786
 20
31.2409910084
 30
0.0
 10
40.0068466968
 20
31.2617817057
 30
0.0
 10
39.9743309656
 20
31.3148933399
 30
0.0
 10
39.9525969733
 20
31.4005579173
 30
0.0
 10
39.9555986009
 20
31.5166953464
 30
0.0
 10
39.9853746674
 20
31.6426327334
 30
0.0
 10
40.0397056487
 20
31.7690324644
 30
0.0
 10
40.1144073149
 20
31.8866130591
 30
0.0
 10
40.2038801925
 20
31.9862112245
 30
0.0
 10
40.2731051292
 20
32.0390170318
 30
0.0
 10
40.3086774927
 20
32.0595546228
 30
0.0
  0
SPLINE
  5
257
100
AcDbEntity
  8
0
100
AcDbSpline
 62
7
  6
BYLAYER
 70
0
 71
3
 72
11
 73
7
 74
0
 42
0.0000001
 43
0.0000001
 44
0.0000000001
 40
0.0
 40
0.0
 40
0.0
 40
0.0
 40
0.2781878973
 40
0.5363942164
 40
0.7760307476
 40
1.0
 40
1.0
 40
1.0
 40
1.0
 10
42.6783288631
 20
34.3949976017
 30
0.0
 10
42.8867487451
 20
34.5034275631
 30
0.0
 10
43.3011494264
 20
34.6898604365
 30
0.0
 10
43.9322428945
 20
34.8752192747
 30
0.0
 10
44.5398022588
 20
34.9521125267
 30
0.0
 10
44.9336839219
 20
34.9287199187
 30
0.0
 10
45.1202026534
 20
34.8972869467
 30
0.0
  0
SPLINE
  5
258
100
AcDbEntity
  8
0
100
AcDbSpline
 62
7
  6
BYLAYER
 70
0
 71
3
 72
11
 73
7
 74
0
 42
0.0000001
 43
0.0000001
 44
0.0000000001
 40
0.0
 40
0.0
 40
0.0
 40
0.0
 40
0.2897049461
 40
0.5490581834
 40
0.7822832707
 40
1.0
 40
1.0
 40
1.0
 40
1.0
 10
47.5211366322
 20
62.7428925472
 30
0.0
 10
47.5211366322
 20
62.79356029
 30
0.0
 10
47.513441593
 20
62.8899094024
 30
0.0
 10
47.4744525034
 20
63.0223278787
 30
0.0
 10
47.4087065581
 20
63.1297301351
 30
0.0
 10
47.3470064856
 20
63.1816358836
 30
0.0
 10
47.3140307133
 20
63.200674999
 30
0.0
  0
SPLINE
  5
259
100
AcDbEntity
  8
0
100
AcDbSpline
 62
7
  6
BYLAYER
 70
0
 71
3
 72
11
 73
7
 74
0
 42
0.0000001
 43
0.0000001
 44
0.0000000001
 40
0.0
 40
0.0
 40
0.0
 40
0.0
 40
0.263286056
 40
0.52405504
 40
0.7723689199
 40
1.0
 40
1.0
 40
1.0
 40
1.0
 10
47.2196108941
 20
61.7899677328
 30
0.0
 10
47.2662399141
 20
61.8545902384
 30
0.0
 10
47.3500165674
 20
61.9899685536
 30
0.0
 10
47.4452694131
 20
62.2042767503
 30
0.0
 10
47.5054919686
 20
62.4197963348
 30
0.0
 10
47.5211366322
 20
62.5639950201
 30
0.0
 10
47.5211366322
 20
62.6328922839
 30
0.0
  0
SPLINE
  5
25A
100
AcDbEntity
  8
0
100
AcDbSpline
 62
7
  6
BYLAYER
 70
0
 71
3
 72
10
 73
6
 74
0
 42
0.0000001
 43
0.0000001
 44
0.0000000001
 40
0.0
 40
0.0
 40
0.0
 40
0.0
 40
0.2305281889
 40
0.4761763338
 40
1.0
 40
1.0
 40
1.0
 40
1.0
 10
45.378189456
 20
59.5984935312
 30
0.0
 10
45.4527840902
 20
59.6415605062
 30
0.0
 10
45.6009198271
 20
59.7411100477
 30
0.0
 10
45.8857523328
 20
59.9837124458
 30
0.0
 10
46.0748219464
 20
60.203420769
 30
0.0
 10
46.1893456541
 20
60.362137571
 30
0.0
  0
SPLINE
  5
25B
100
AcDbEntity
  8
0
100
AcDbSpline
 62
7
  6
BYLAYER
 70
0
 71
3
 72
11
 73
7
 74
0
 42
0.0000001
 43
0.0000001
 44
0.0000000001
 40
0.0
 40
0.0
 40
0.0
 40
0.0
 40
0.2177182217
 40
0.4509432136
 40
0.7102956781
 40
1.0
 40
1.0
 40
1.0
 40
1.0
 10
44.553813132
 20
59.2421164902
 30
0.0
 10
44.5703009373
 20
59.2325969793
 30
0.0
 10
44.6082011435
 20
59.2188556517
 30
0.0
 10
44.6711435051
 20
59.2172362228
 30
0.0
 10
44.7382289531
 20
59.23345714
 30
0.0
 10
44.7818725876
 20
59.2542118818
 30
0.0
 10
44.8038120912
 20
59.2668785845
 30
0.0
  0
SPLINE
  5
25C
100
AcDbEntity
  8
0
100
AcDbSpline
 62
7
  6
BYLAYER
 70
0
 71
3
 72
11
 73
7
 74
0
 42
0.0000001
 43
0.0000001
 44
0.0000000001
 40
0.0
 40
0.0
 40
0.0
 40
0.0
 40
0.2372518718
 40
0.4999985497
 40
0.7627460178
 40
1.0
 40
1.0
 40
1.0
 40
1.0
 10
42.3239234287
 20
32.5212802173
 30
0.0
 10
42.374120412
 20
32.5502612861
 30
0.0
 10
42.4691136788
 20
32.6301997409
 30
0.0
 10
42.5799413011
 20
32.7817156999
 30
0.0
 10
42.6557434289
 20
32.9534541049
 30
0.0
 10
42.6774753473
 20
33.0756905901
 30
0.0
 10
42.6774753473
 20
33.1336535028
 30
0.0
  0
SPLINE
  5
25D
100
AcDbEntity
  8
0
100
AcDbSpline
 62
7
  6
BYLAYER
 70
0
 71
3
 72
9
 73
5
 74
0
 42
0.0000001
 43
0.0000001
 44
0.0000000001
 40
0.0
 40
0.0
 40
0.0
 40
0.0
 40
0.2441998105
 40
1.0
 40
1.0
 40
1.0
 40
1.0
 10
42.2823290854
 20
32.5001009674
 30
0.0
 10
42.2858070278
 20
32.5016331686
 30
0.0
 10
42.2999573916
 20
32.5081149119
 30
0.0
 10
42.3137367516
 20
32.5153989716
 30
0.0
 10
42.3239234287
 20
32.5212802173
 30
0.0
  0
SPLINE
  5
25E
100
AcDbEntity
  8
0
100
AcDbSpline
 62
7
  6
BYLAYER
 70
0
 71
3
 72
10
 73
6
 74
0
 42
0.0000001
 43
0.0000001
 44
0.0000000001
 40
0.0
 40
0.0
 40
0.0
 40
0.0
 40
0.4734292772
 40
0.7297807613
 40
1.0
 40
1.0
 40
1.0
 40
1.0
 10
40.4741216596
 20
32.1076163787
 30
0.0
 10
40.7679732738
 20
32.0976036258
 30
0.0
 10
41.2245790559
 20
32.147177484
 30
0.0
 10
41.8233101355
 20
32.3136634555
 30
0.0
 10
42.1287528534
 20
32.4324432407
 30
0.0
 10
42.2823290854
 20
32.5001009674
 30
0.0
  0
SPLINE
  5
25F
100
AcDbEntity
  8
0
100
AcDbSpline
 62
7
  6
BYLAYER
 70
0
 71
3
 72
9
 73
5
 74
0
 42
0.0000001
 43
0.0000001
 44
0.0000000001
 40
0.0
 40
0.0
 40
0.0
 40
0.0
 40
0.2775224548
 40
1.0
 40
1.0
 40
1.0
 40
1.0
 10
40.3086774927
 20
32.0595546228
 30
0.0
 10
40.3225721581
 20
32.0675766638
 30
0.0
 10
40.3738912028
 20
32.0938809904
 30
0.0
 10
40.4323779473
 20
32.1090387615
 30
0.0
 10
40.4741216596
 20
32.1076163787
 30
0.0
  0
SPLINE
  5
260
100
AcDbEntity
  8
0
100
AcDbSpline
 62
7
  6
BYLAYER
 70
0
 71
3
 72
12
 73
8
 74
0
 42
0.0000001
 43
0.0000001
 44
0.0000000001
 40
0.0
 40
0.0
 40
0.0
 40
0.0
 40
0.2895104871
 40
0.5486232845
 40
0.7815559591
 40
0.891768883
 40
1.0
 40
1.0
 40
1.0
 40
1.0
 10
47.5211366322
 20
32.9600173871
 30
0.0
 10
47.5211366322
 20
33.061363842
 30
0.0
 10
47.5057579236
 20
33.254098808
 30
0.0
 10
47.4278627675
 20
33.5187511148
 30
0.0
 10
47.3158622218
 20
33.7013487891
 30
0.0
 10
47.2027991637
 20
33.8126315551
 30
0.0
 10
47.1397137595
 20
33.8566288811
 30
0.0
 10
47.1068966674
 20
33.875563086
 30
0.0
  0
SPLINE
  5
261
100
AcDbEntity
  8
0
100
AcDbSpline
 62
7
  6
BYLAYER
 70
0
 71
3
 72
13
 73
9
 74
0
 42
0.0000001
 43
0.0000001
 44
0.0000000001
 40
0.0
 40
0.0
 40
0.0
 40
0.0
 40
0.114175582
 40
0.23756922
 40
0.49999856
 40
0.7624286893
 40
0.8858231943
 40
1.0
 40
1.0
 40
1.0
 40
1.0
 10
46.814032795
 20
19.7656527481
 30
0.0
 10
46.8624050179
 20
19.7935802973
 30
0.0
 10
46.9580025408
 20
19.8606607385
 30
0.0
 10
47.1370949401
 20
20.028122476
 30
0.0
 10
47.3260929443
 20
20.2865096427
 30
0.0
 10
47.455362305
 20
20.5793813394
 30
0.0
 10
47.5108419659
 20
20.8182122675
 30
0.0
 10
47.5211366322
 20
20.934543372
 30
0.0
 10
47.5211366322
 20
20.9903993191
 30
0.0
  0
SPLINE
  5
262
100
AcDbEntity
  8
0
100
AcDbSpline
 62
7
  6
BYLAYER
 70
0
 71
3
 72
9
 73
5
 74
0
 42
0.0000001
 43
0.0000001
 44
0.0000000001
 40
0.0
 40
0.0
 40
0.0
 40
0.0
 40
0.2416965078
 40
1.0
 40
1.0
 40
1.0
 40
1.0
 10
40.80903973
 20
22.4410140821
 30
0.0
 10
41.1045261693
 20
22.525647859
 30
0.0
 10
42.3190153271
 20
22.9037403341
 30
0.0
 10
43.4993501028
 20
23.3886093416
 30
0.0
 10
44.3700780448
 20
23.8030844982
 30
0.0
  0
SPLINE
  5
263
100
AcDbEntity
  8
0
100
AcDbSpline
 62
7
  6
BYLAYER
 70
0
 71
3
 72
9
 73
5
 74
0
 42
0.0000001
 43
0.0000001
 44
0.0000000001
 40
0.0
 40
0.0
 40
0.0
 40
0.0
 40
0.5169982616
 40
1.0
 40
1.0
 40
1.0
 40
1.0
 10
39.5133912324
 20
21.8785442695
 30
0.0
 10
39.7245869483
 20
22.0004774452
 30
0.0
 10
40.1456233059
 20
22.215528952
 30
0.0
 10
40.5900154393
 20
22.3782807364
 30
0.0
 10
40.80903973
 20
22.4410140821
 30
0.0
  0
SPLINE
  5
264
100
AcDbEntity
  8
0
100
AcDbSpline
 62
7
  6
BYLAYER
 70
0
 71
3
 72
9
 73
5
 74
0
 42
0.0000001
 43
0.0000001
 44
0.0000000001
 40
0.0
 40
0.0
 40
0.0
 40
0.0
 40
0.2563400095
 40
1.0
 40
1.0
 40
1.0
 40
1.0
 10
38.7366194577
 20
21.364033313
 30
0.0
 10
38.800381124
 20
21.4117475571
 30
0.0
 10
39.0516668413
 20
21.594437556
 30
0.0
 10
39.3133086705
 20
21.7630272382
 30
0.0
 10
39.5133912324
 20
21.8785442695
 30
0.0
  0
SPLINE
  5
265
100
AcDbEntity
  8
0
100
AcDbSpline
 62
7
  6
BYLAYER
 70
0
 71
3
 72
11
 73
7
 74
0
 42
0.0000001
 43
0.0000001
 44
0.0000000001
 40
0.0
 40
0.0
 40
0.0
 40
0.0
 40
0.2333350285
 40
0.4915213108
 40
0.7542481311
 40
1.0
 40
1.0
 40
1.0
 40
1.0
 10
38.434852324
 20
20.7859607579
 30
0.0
 10
38.434852324
 20
20.8381771502
 30
0.0
 10
38.4525979632
 20
20.9482708452
 30
0.0
 10
38.5160503329
 20
21.1058330914
 30
0.0
 10
38.6108475334
 20
21.2501153169
 30
0.0
 10
38.6925879586
 20
21.3310835829
 30
0.0
 10
38.7366194577
 20
21.364033313
 30
0.0
  0
SPLINE
  5
266
100
AcDbEntity
  8
0
100
AcDbSpline
 62
7
  6
BYLAYER
 70
0
 71
3
 72
15
 73
11
 74
0
 42
0.0000001
 43
0.0000001
 44
0.0000000001
 40
0.0
 40
0.0
 40
0.0
 40
0.0
 40
0.1141229605
 40
0.2373462928
 40
0.366971064
 40
0.4999983279
 40
0.633025824
 40
0.762651271
 40
0.8858756957
 40
1.0
 40
1.0
 40
1.0
 40
1.0
 10
37.0206446496
 20
16.8467543144
 30
0.0
 10
37.1174315323
 20
16.9026339136
 30
0.0
 10
37.3086458221
 20
17.0367265077
 30
0.0
 10
37.5718010387
 20
17.2828408965
 30
0.0
 10
37.8142585442
 20
17.5738801756
 30
0.0
 10
38.0269823254
 20
17.8987333623
 30
0.0
 10
38.2019501843
 20
18.2453855788
 30
0.0
 10
38.3327680801
 20
18.6008819317
 30
0.0
 10
38.4143315794
 20
18.9518413833
 30
0.0
 10
38.434852324
 20
19.1844864416
 30
0.0
 10
38.434852324
 20
19.2962474564
 30
0.0
  0
SPLINE
  5
267
100
AcDbEntity
  8
0
100
AcDbSpline
 62
7
  6
BYLAYER
 70
0
 71
3
 72
13
 73
9
 74
0
 42
0.0000001
 43
0.0000001
 44
0.0000000001
 40
0.0
 40
0.0
 40
0.0
 40
0.0
 40
0.1079644888
 40
0.2181710038
 40
0.3322593626
 40
0.4516966831
 40
0.7106932388
 40
1.0
 40
1.0
 40
1.0
 40
1.0
 10
17.6560499744
 20
6.1449631443
 30
0.0
 10
17.6887995281
 20
6.12605464
 30
0.0
 10
17.7584272823
 20
6.0935212932
 30
0.0
 10
17.871057514
 20
6.0623420564
 30
0.0
 10
17.9911812153
 20
6.0488596929
 30
0.0
 10
18.1641213393
 20
6.0548859868
 30
0.0
 10
18.393807401
 20
6.1103174882
 30
0.0
 10
18.5682877966
 20
6.1933447104
 30
0.0
 10
18.656045811
 20
6.2440115212
 30
0.0
  0
SPLINE
  5
268
100
AcDbEntity
  8
0
100
AcDbSpline
 62
7
  6
BYLAYER
 70
0
 71
3
 72
10
 73
6
 74
0
 42
0.0000001
 43
0.0000001
 44
0.0000000001
 40
0.0
 40
0.0
 40
0.0
 40
0.0
 40
0.5264034375
 40
0.7670672794
 40
1.0
 40
1.0
 40
1.0
 40
1.0
 10
43.6766476867
 20
59.8259134981
 30
0.0
 10
43.6840402212
 20
59.7983237977
 30
0.0
 10
43.7007433349
 20
59.7589115809
 30
0.0
 10
43.7363645234
 20
59.7175304106
 30
0.0
 10
43.7572079927
 20
59.7020498318
 30
0.0
 10
43.7681536566
 20
59.6957301691
 30
0.0
  0
SPLINE
  5
269
100
AcDbEntity
  8
0
100
AcDbSpline
 62
7
  6
BYLAYER
 70
0
 71
3
 72
11
 73
7
 74
0
 42
0.0000001
 43
0.0000001
 44
0.0000000001
 40
0.0
 40
0.0
 40
0.0
 40
0.0
 40
0.2760631793
 40
0.534292438
 40
0.7750487151
 40
1.0
 40
1.0
 40
1.0
 40
1.0
 10
42.8896064984
 20
31.9928155981
 30
0.0
 10
42.6589550515
 20
31.859649718
 30
0.0
 10
42.1989336127
 20
31.6243776653
 30
0.0
 10
41.495607178
 20
31.364674825
 30
0.0
 10
40.8112104717
 20
31.2140866045
 30
0.0
 10
40.3601300154
 20
31.1875998728
 30
0.0
 10
40.1432333256
 20
31.1949904498
 30
0.0
  0
SPLINE
  5
26A
100
AcDbEntity
  8
0
100
AcDbSpline
 62
7
  6
BYLAYER
 70
0
 71
3
 72
11
 73
7
 74
0
 42
0.0000001
 43
0.0000001
 44
0.0000000001
 40
0.0
 40
0.0
 40
0.0
 40
0.0
 40
0.2316400065
 40
0.4942145089
 40
0.7599720437
 40
1.0
 40
1.0
 40
1.0
 40
1.0
 10
43.6389364814
 20
32.6029719414
 30
0.0
 10
43.6408083576
 20
32.579346823
 30
0.0
 10
43.6343552439
 20
32.5281371732
 30
0.0
 10
43.604872084
 20
32.4555118826
 30
0.0
 10
43.5592943886
 20
32.3906823269
 30
0.0
 10
43.5193211684
 20
32.3563793622
 30
0.0
 10
43.4980538627
 20
32.3441007508
 30
0.0
  0
SPLINE
  5
26B
100
AcDbEntity
  8
0
100
AcDbSpline
 62
7
  6
BYLAYER
 70
0
 71
3
 72
11
 73
7
 74
0
 42
0.0000001
 43
0.0000001
 44
0.0000000001
 40
0.0
 40
0.0
 40
0.0
 40
0.0
 40
0.2400279563
 40
0.5057854911
 40
0.7683599935
 40
1.0
 40
1.0
 40
1.0
 40
1.0
 10
43.7124606
 20
33.2027399748
 30
0.0
 10
43.6965101207
 20
33.1935310162
 30
0.0
 10
43.6665302056
 20
33.1678037927
 30
0.0
 10
43.632346934
 20
33.1191816259
 30
0.0
 10
43.6102345641
 20
33.0647126579
 30
0.0
 10
43.6053947288
 20
33.0263054206
 30
0.0
 10
43.606798636
 20
33.0085865818
 30
0.0
  0
SPLINE
  5
26C
100
AcDbEntity
  8
0
100
AcDbSpline
 62
7
  6
BYLAYER
 70
0
 71
3
 72
11
 73
7
 74
0
 42
0.0000001
 43
0.0000001
 44
0.0000000001
 40
0.0
 40
0.0
 40
0.0
 40
0.0
 40
0.2214719067
 40
0.4601806075
 40
0.7193694319
 40
1.0
 40
1.0
 40
1.0
 40
1.0
 10
46.6758440487
 20
33.9991572867
 30
0.0
 10
46.4712134037
 20
34.0336425595
 30
0.0
 10
46.0365759364
 20
34.0549133306
 30
0.0
 10
45.3667132421
 20
33.9528099623
 30
0.0
 10
44.6717151983
 20
33.7217665664
 30
0.0
 10
44.2179086587
 20
33.4945588056
 30
0.0
 10
43.9901895772
 20
33.3630859174
 30
0.0
  0
SPLINE
  5
26D
100
AcDbEntity
  8
0
100
AcDbSpline
 62
7
  6
BYLAYER
 70
0
 71
3
 72
11
 73
7
 74
0
 42
0.0000001
 43
0.0000001
 44
0.0000000001
 40
0.0
 40
0.0
 40
0.0
 40
0.0
 40
0.2895411595
 40
0.5491183966
 40
0.7822559144
 40
1.0
 40
1.0
 40
1.0
 40
1.0
 10
44.6927212834
 20
19.2757724619
 30
0.0
 10
44.6927212834
 20
19.2301974952
 30
0.0
 10
44.6996801207
 20
19.1434763281
 30
0.0
 10
44.734737918
 20
19.0243062812
 30
0.0
 10
44.7938738261
 20
18.9275732579
 30
0.0
 10
44.8494653876
 20
18.8809451519
 30
0.0
 10
44.8791475502
 20
18.8638085403
 30
0.0
  0
SPLINE
  5
26E
100
AcDbEntity
  8
0
100
AcDbSpline
 62
7
  6
BYLAYER
 70
0
 71
3
 72
12
 73
8
 74
0
 42
0.0000001
 43
0.0000001
 44
0.0000000001
 40
0.0
 40
0.0
 40
0.0
 40
0.0
 40
0.1082045624
 40
0.2183943949
 40
0.4513304287
 40
0.7105211215
 40
1.0
 40
1.0
 40
1.0
 40
1.0
 10
38.7700963379
 20
71.5942711478
 30
0.0
 10
38.7372989467
 20
71.6132174813
 30
0.0
 10
38.6676491164
 20
71.6457919006
 30
0.0
 10
38.5147858934
 20
71.6881106504
 30
0.0
 10
38.3006297574
 20
71.6938000704
 30
0.0
 10
38.0324905602
 20
71.6289156953
 30
0.0
 10
37.8578709224
 20
71.5458847404
 30
0.0
 10
37.7701157123
 20
71.4952195487
 30
0.0
  0
SPLINE
  5
26F
100
AcDbEntity
  8
0
100
AcDbSpline
 62
7
  6
BYLAYER
 70
0
 71
3
 72
11
 73
7
 74
0
 42
0.0000001
 43
0.0000001
 44
0.0000000001
 40
0.0
 40
0.0
 40
0.0
 40
0.0
 40
0.2282530376
 40
0.4746476794
 40
0.7340283433
 40
1.0
 40
1.0
 40
1.0
 40
1.0
 10
19.3985048401
 20
60.8884283801
 30
0.0
 10
19.3017152635
 20
60.8325472256
 30
0.0
 10
19.1105329752
 20
60.6984548042
 30
0.0
 10
18.8473039396
 20
60.4523441502
 30
0.0
 10
18.604920823
 20
60.1612953078
 30
0.0
 10
18.4636244914
 20
59.9455718783
 30
0.0
 10
18.3985090035
 20
59.8327879187
 30
0.0
  0
SPLINE
  5
270
100
AcDbEntity
  8
0
100
AcDbSpline
 62
7
  6
BYLAYER
 70
0
 71
3
 72
13
 73
9
 74
0
 42
0.0000001
 43
0.0000001
 44
0.0000000001
 40
0.0
 40
0.0
 40
0.0
 40
0.0
 40
0.289307399
 40
0.5483047393
 40
0.6677422423
 40
0.7818304955
 40
0.8920365047
 40
1.0
 40
1.0
 40
1.0
 40
1.0
 10
10.3628299866
 20
11.0322388099
 30
0.0
 10
10.3628299866
 20
10.9309033244
 30
0.0
 10
10.378165852
 20
10.7382825016
 30
0.0
 10
10.4450022512
 20
10.5116490018
 30
0.0
 10
10.5262519326
 20
10.3588619342
 30
0.0
 10
10.5979886203
 20
10.2615704852
 30
0.0
 10
10.6813044043
 20
10.1796169716
 30
0.0
 10
10.7442921887
 20
10.1355824581
 30
0.0
 10
10.7770418245
 20
10.1166739064
 30
0.0
  0
SPLINE
  5
271
100
AcDbEntity
  8
0
100
AcDbSpline
 62
7
  6
BYLAYER
 70
0
 71
3
 72
11
 73
7
 74
0
 42
0.0000001
 43
0.0000001
 44
0.0000000001
 40
0.0
 40
0.0
 40
0.0
 40
0.0
 40
0.2659703972
 40
0.5253506999
 40
0.7717458151
 40
1.0
 40
1.0
 40
1.0
 40
1.0
 10
10.7770418245
 20
46.6319462569
 30
0.0
 10
10.7119262273
 20
46.5191621082
 30
0.0
 10
10.5957531665
 20
46.2889328477
 30
0.0
 10
10.4648898704
 20
45.9334962136
 30
0.0
 10
10.3833665382
 20
45.5824748233
 30
0.0
 10
10.3628299866
 20
45.3498576644
 30
0.0
 10
10.3628299866
 20
45.2380935763
 30
0.0
  0
ENDSEC
  0
SECTION
  2
OBJECTS
  0
DICTIONARY
  5
C
100
AcDbDictionary
280
0
281
1
  3
ACAD_GROUP
350
D
  3
ACAD_MLINESTYLE
350
17
  3
ACAD_LAYOUT
350
1A
  3
ACAD_PLOTSETTINGS
350
19
  3
ACAD_PLOTSTYLENAME
350
E
  0
DICTIONARY
  5
D
102
{ACAD_REACTORS
330
C
102
}
100
AcDbDictionary
280
0
281
1
  0
ACDBDICTIONARYWDFLT
  5
E
102
{ACAD_REACTORS
330
C
102
}
100
AcDbDictionary
281
1
  3
Normal
350
F
100
AcDbDictionaryWithDefault
340
F
  0
DICTIONARY
  5
17
102
{ACAD_REACTORS
330
C
102
}
100
AcDbDictionary
280
0
281
1
  3
Standard
350
18
  0
DICTIONARY
  5
19
102
{ACAD_REACTORS
330
C
102
}
100
AcDbDictionary
281
1
  0
DICTIONARY
  5
1A
102
{ACAD_REACTORS
330
C
102
}
100
AcDbDictionary
281
1
  3
Model
350
272
  3
Layout1
350
273
  0
ACDBPLACEHOLDER
  5
F
102
{ACAD_REACTORS
330
E
102
}
  0
MLINESTYLE
  5
18
102
{ACAD_REACTORS
330
17
102
}
100
AcDbMlineStyle
  2
STANDARD
 70
0
  3

 62
256
 51
90.0
 52
90.0
 71
2
 49
0.5
 62
256
  6
BYLAYER
 49
-0.5
 62
256
  6
BYLAYER
  0
LAYOUT
  5
272
102
{ACAD_REACTORS
330
1A
102
}
100
AcDbPlotSettings
  1

  2
none_device
  4

  6

 40
0.0
 41
0.0
 42
0.0
 43
0.0
 44
210.0
 45
297.0
 46
0.0
 47
0.0
 48
0.0
 49
0.0
140
0.0
141
0.0
142
1.0
143
1.0
 70
1024
 72
1
 73
0
 74
0
  7

 75
0
147
1.0
148
0.0
149
0.0
100
AcDbLayout
  1
Model
 70
0
 71
0
 10
0.0
 20
0.0
 11
210.0
 21
297.0
 12
0.0
 22
0.0
 32
0.0
 14
0.0
 24
0.0
 34
0.0
 15
0.0
 25
0.0
 35
0.0
146
0.0
 13
0.0
 23
0.0
 33
0.0
 16
1.0
 26
0.0
 36
0.0
 17
0.0
 27
1.0
 37
0.0
 76
0
330
210
345
0
346
0
  0
LAYOUT
  5
273
102
{ACAD_REACTORS
330
1A
102
}
100
AcDbPlotSettings
  1

  2
none_device
  4

  6

 40
0.0
 41
0.0
 42
0.0
 43
0.0
 44
210.0
 45
297.0
 46
0.0
 47
0.0
 48
0.0
 49
0.0
140
0.0
141
0.0
142
1.0
143
1.0
 70
0
 72
1
 73
0
 74
0
  7

 75
0
147
1.0
148
0.0
149
0.0
100
AcDbLayout
  1
Layout1
 70
0
 71
1
 10
0.0
 20
0.0
 11
210.0
 21
297.0
 12
0.0
 22
0.0
 32
0.0
 14
0.0
 24
0.0
 34
0.0
 15
0.0
 25
0.0
 35
0.0
146
0.0
 13
0.0
 23
0.0
 33
0.0
 16
1.0
 26
0.0
 36
0.0
 17
0.0
 27
1.0
 37
0.0
 76
0
330
211
345
0
346
0
  0
ENDSEC
  0
EOF
