999
DXF file: C:\New 2D genarating\updateCreo8 with 3dPdf\CAD\LVCT00101S_3D-CAD\drw0001_6.dxf
999
Pro/ENGINEER 2021284 by Parametric Technology Corporation
  0
SECTION
  2
HEADER
  9
$ACADVER
  1
AC1024
  9
$DWGCODEPAGE
  3
ANSI_1252
  9
$EXTMAX
 10
74.4846811044
 20
105.3426204191
 30
0.0
  9
$EXTMIN
 10
0.0
 20
0.0
 30
0.0
  9
$LIMMIN
 10
0.0
 20
0.0
  9
$LIMMAX
 10
74.4846811044
 20
105.3426204191
  9
$VIEWCTR
 10
37.2423405522
 20
52.6713102096
  9
$VIEWSIZE
 40
105.3426204191
  9
$CLAYER
  8
0
  9
$LTSCALE
 40
6.8667782199
  9
$CELTYPE
  6
BYLAYER
  9
$DIMSCALE
 40
1.0
  9
$DIMASZ
 40
0.8867223941
  9
$DIMEXO
 40
1.0
  9
$DIMDLI
 40
4.7443194974
  9
$DIMEXE
 40
1.0
  9
$DIMCEN
 40
1.1236546178
  9
$DIMLFAC
 40
1.0
  9
$DIMBLK
  1
_FILLED
  9
$DIMALT
 70
0
  9
$DIMALTF
 40
0.0393700787
  9
$DIMTXT
 40
1.2414113517
  9
$DIMTOL
 70
1
  9
$DIMLIM
 70
0
  9
$DIMTFAC
 40
1.0
  9
$DIMTP
 40
0.01
  9
$DIMTM
 40
0.01
  9
$DIMGAP
 40
0.625
  9
$DIMDSEP
 70
46
  9
$AUNITS
 70
0
  9
$PDMODE
 70
3
  9
$PDSIZE
 40
0.3125
  9
$HANDSEED
  5
285
  9
$TILEMODE
 70
1
  9
$MEASUREMENT
 70
1
  9
$INSUNITS
 70
4
  0
ENDSEC
  0
SECTION
  2
CLASSES
  0
CLASS
  1
ACDBDICTIONARYWDFLT
  2
AcDbDictionaryWithDefault
  3
AutoCAD 2000
 90
0
 91
1
280
0
281
0
  0
CLASS
  1
ACDBPLACEHOLDER
  2
AcDbPlaceHolder
  3
AutoCAD 2000
 90
0
 91
1
280
0
281
0
  0
CLASS
  1
LAYOUT
  2
AcDbLayout
  3
AutoCAD 2000
 90
0
 91
0
280
0
281
0
  0
ENDSEC
  0
SECTION
  2
TABLES
  0
TABLE
  2
VPORT
  5
8
100
AcDbSymbolTable
 70
2
  0
VPORT
  5
1F4
100
AcDbSymbolTableRecord
100
AcDbViewportTableRecord
  2
*ACTIVE
 70
0
 10
0.0
 20
0.0
 11
1.0
 21
1.0
 12
37.2423405522
 22
52.6713102096
 13
0.0
 23
0.0
 14
1.0
 24
1.0
 15
0.0
 25
0.0
 16
0.0
 26
0.0
 36
1.0
 17
0.0
 27
0.0
 37
0.0
 40
105.3426204191
 41
0.7070707071
 42
50.0
 43
0.0
 44
0.0
 50
0.0
 51
0.0
 71
0
 72
100
 73
1
 74
1
 75
0
 76
0
 77
0
 78
0
  0
ENDTAB
  0
TABLE
  2
LTYPE
  5
5
100
AcDbSymbolTable
 70
6
  0
LTYPE
  5
14
100
AcDbSymbolTableRecord
100
AcDbLinetypeTableRecord
  2
BYBLOCK
 70
0
  3

 72
65
 73
0
 40
0.0
  0
LTYPE
  5
15
100
AcDbSymbolTableRecord
100
AcDbLinetypeTableRecord
  2
BYLAYER
 70
0
  3

 72
65
 73
0
 40
0.0
  0
LTYPE
  5
16
100
AcDbSymbolTableRecord
100
AcDbLinetypeTableRecord
  2
CONTINUOUS
 70
64
  3
Solid line
 72
65
 73
0
 40
0.0
  0
LTYPE
  5
1F5
100
AcDbSymbolTableRecord
100
AcDbLinetypeTableRecord
  2
CENTER
 70
64
  3
____ _ ____ _ ____ _ ____ _ ____ _ ____ _ ____
 72
65
 73
4
 40
0.6
 49
0.375
 74
0
 49
-0.075
 74
0
 49
0.075
 74
0
 49
-0.075
 74
0
  0
LTYPE
  5
1F6
100
AcDbSymbolTableRecord
100
AcDbLinetypeTableRecord
  2
HIDDEN
 70
64
  3
- - - - - - - - - - - - - - - - - - - -
 72
65
 73
2
 40
0.2
 49
0.1
 74
0
 49
-0.1
 74
0
  0
LTYPE
  5
1F7
100
AcDbSymbolTableRecord
100
AcDbLinetypeTableRecord
  2
PHANTOM
 70
64
  3
_____ _ _ _____ _ _ _____ _ _ _____
 72
65
 73
6
 40
0.8
 49
0.45
 74
0
 49
-0.05
 74
0
 49
0.1
 74
0
 49
-0.05
 74
0
 49
0.1
 74
0
 49
-0.05
 74
0
  0
LTYPE
  5
1F8
100
AcDbSymbolTableRecord
100
AcDbLinetypeTableRecord
  2
DOT
 70
64
  3
. . . . . . . . . . . . . . . . . . . .
 72
65
 73
2
 40
0.2
 49
0.1
 74
0
 49
-0.1
 74
0
  0
LTYPE
  5
1F9
100
AcDbSymbolTableRecord
100
AcDbLinetypeTableRecord
  2
DASHED
 70
64
  3
- - - - - - - - - - - - - - - - - - - -
 72
65
 73
2
 40
0.2
 49
0.1
 74
0
 49
-0.1
 74
0
  0
ENDTAB
  0
TABLE
  2
LAYER
  5
2
100
AcDbSymbolTable
 70
36
  0
LAYER
  5
10
100
AcDbSymbolTableRecord
100
AcDbLayerTableRecord
  2
0
 70
0
 62
7
  6
CONTINUOUS
370
-3
390
F
  0
LAYER
  5
1FA
100
AcDbSymbolTableRecord
100
AcDbLayerTableRecord
  2
DEFAULT_1
 70
0
 62
7
  6
CENTER
370
-3
390
F
  0
LAYER
  5
1FB
100
AcDbSymbolTableRecord
100
AcDbLayerTableRecord
  2
DEFAULT_2
 70
0
 62
8
  6
HIDDEN
370
-3
390
F
  0
LAYER
  5
1FC
100
AcDbSymbolTableRecord
100
AcDbLayerTableRecord
  2
DEFAULT_3
 70
0
 62
7
  6
PHANTOM
370
-3
390
F
  0
LAYER
  5
1FD
100
AcDbSymbolTableRecord
100
AcDbLayerTableRecord
  2
00_COMPONENTS
 70
0
 62
7
  6
CONTINUOUS
370
-3
390
F
  0
LAYER
  5
1FE
100
AcDbSymbolTableRecord
100
AcDbLayerTableRecord
  2
01_1_DEFAULT_DATUMS
 70
0
 62
7
  6
CONTINUOUS
370
-3
390
F
  0
LAYER
  5
1FF
100
AcDbSymbolTableRecord
100
AcDbLayerTableRecord
  2
01_PLANES
 70
0
 62
7
  6
CONTINUOUS
370
-3
390
F
  0
LAYER
  5
200
100
AcDbSymbolTableRecord
100
AcDbLayerTableRecord
  2
02_COORD_SYS
 70
0
 62
7
  6
CONTINUOUS
370
-3
390
F
  0
LAYER
  5
201
100
AcDbSymbolTableRecord
100
AcDbLayerTableRecord
  2
03_AXES
 70
0
 62
7
  6
CONTINUOUS
370
-3
390
F
  0
LAYER
  5
202
100
AcDbSymbolTableRecord
100
AcDbLayerTableRecord
  2
04_POINTS
 70
0
 62
7
  6
CONTINUOUS
370
-3
390
F
  0
LAYER
  5
203
100
AcDbSymbolTableRecord
100
AcDbLayerTableRecord
  2
05_CURVES
 70
0
 62
7
  6
CONTINUOUS
370
-3
390
F
  0
LAYER
  5
204
100
AcDbSymbolTableRecord
100
AcDbLayerTableRecord
  2
06_SURFS
 70
0
 62
7
  6
CONTINUOUS
370
-3
390
F
  0
LAYER
  5
205
100
AcDbSymbolTableRecord
100
AcDbLayerTableRecord
  2
07_COSMETICS
 70
0
 62
7
  6
CONTINUOUS
370
-3
390
F
  0
LAYER
  5
206
100
AcDbSymbolTableRecord
100
AcDbLayerTableRecord
  2
10_NOTES
 70
0
 62
7
  6
CONTINUOUS
370
-3
390
F
  0
LAYER
  5
207
100
AcDbSymbolTableRecord
100
AcDbLayerTableRecord
  2
11_NOTES_PUB
 70
0
 62
7
  6
CONTINUOUS
370
-3
390
F
  0
LAYER
  5
208
100
AcDbSymbolTableRecord
100
AcDbLayerTableRecord
  2
13_REF_GTOL
 70
0
 62
7
  6
CONTINUOUS
370
-3
390
F
  0
LAYER
  5
209
100
AcDbSymbolTableRecord
100
AcDbLayerTableRecord
  2
16_MISC
 70
0
 62
7
  6
CONTINUOUS
370
-3
390
F
  0
LAYER
  5
20A
100
AcDbSymbolTableRecord
100
AcDbLayerTableRecord
  2
17_NO_PRINT
 70
0
 62
7
  6
CONTINUOUS
370
-3
390
F
  0
LAYER
  5
20B
100
AcDbSymbolTableRecord
100
AcDbLayerTableRecord
  2
18_DATUM_CAMS_JOINTS
 70
0
 62
7
  6
CONTINUOUS
370
-3
390
F
  0
LAYER
  5
20C
100
AcDbSymbolTableRecord
100
AcDbLayerTableRecord
  2
19_DATUM_FUNCTIONAL
 70
0
 62
7
  6
CONTINUOUS
370
-3
390
F
  0
LAYER
  5
20D
100
AcDbSymbolTableRecord
100
AcDbLayerTableRecord
  2
20_DATUM_KINEMATIC_SCHEME
 70
0
 62
7
  6
CONTINUOUS
370
-3
390
F
  0
ENDTAB
  0
TABLE
  2
STYLE
  5
3
100
AcDbSymbolTable
 70
1
  0
STYLE
  5
11
100
AcDbSymbolTableRecord
100
AcDbTextStyleTableRecord
  2
STANDARD
 70
0
 40
0.0
 41
0.8
 50
0.0
 71
0
 42
0.2
  3
txt
  4

  0
STYLE
  5
20E
100
AcDbSymbolTableRecord
100
AcDbTextStyleTableRecord
  2
TEXTSTYLE_1
 70
0
 40
0.0
 41
0.8
 50
0.0
 71
0
 42
0.2
  3
gdt
  4

  0
ENDTAB
  0
TABLE
  2
VIEW
  5
6
100
AcDbSymbolTable
 70
0
  0
ENDTAB
  0
TABLE
  2
UCS
  5
7
100
AcDbSymbolTable
 70
0
  0
ENDTAB
  0
TABLE
  2
APPID
  5
9
100
AcDbSymbolTable
 70
1
  0
APPID
  5
20F
100
AcDbSymbolTableRecord
100
AcDbRegAppTableRecord
  2
ACAD
 70
0
  0
ENDTAB
  0
TABLE
  2
BLOCK_RECORD
  5
1
100
AcDbSymbolTable
 70
0
  0
BLOCK_RECORD
  5
210
100
AcDbSymbolTableRecord
100
AcDbBlockTableRecord
  2
*Model_Space
  0
BLOCK_RECORD
  5
211
100
AcDbSymbolTableRecord
100
AcDbBlockTableRecord
  2
*Paper_Space
  0
BLOCK_RECORD
  5
212
100
AcDbSymbolTableRecord
100
AcDbBlockTableRecord
  2
_FILLED
  0
ENDTAB
  0
TABLE
  2
DIMSTYLE
  5
A
100
AcDbSymbolTable
 70
1
100
AcDbDimStyleTable
 71
0
  0
DIMSTYLE
105
213
100
AcDbSymbolTableRecord
100
AcDbDimStyleTableRecord
  2
STANDARD
 70
0
  3

  4

 40
1.0
 41
0.8867223941
 42
1.0
 43
0.38
 44
1.0
 45
0.0
 46
0.0
 47
0.01
 48
0.01
140
1.2414113517
141
0.09
142
0.0
143
25.4
144
1.0
145
0.0
146
1.0
147
0.625
 71
1
 72
0
 73
0
 74
0
 75
0
 76
0
 77
1
 78
8
 79
2
170
0
171
1
172
0
173
0
174
0
175
0
176
0
177
0
178
0
270
2
179
2
271
2
272
2
273
2
274
2
275
0
280
0
281
0
282
0
283
1
284
8
285
0
286
0
287
3
288
0
340
11
278
46
341
212
342
212
343
212
344
212
  0
ENDTAB
  0
ENDSEC
  0
SECTION
  2
BLOCKS
  0
BLOCK
  5
20
100
AcDbEntity
  8
0
100
AcDbBlockBegin
  2
*Model_Space
 70
0
 10
0.0
 20
0.0
 30
0.0
  3
*Model_Space
  1

  0
ENDBLK
  5
21
100
AcDbEntity
  8
0
100
AcDbBlockEnd
  0
BLOCK
  5
1C
100
AcDbEntity
  8
0
100
AcDbBlockBegin
  2
*Paper_Space
 70
0
 10
0.0
 20
0.0
 30
0.0
  3
*Paper_Space
  1

  0
ENDBLK
  5
1D
100
AcDbEntity
  8
0
100
AcDbBlockEnd
  0
BLOCK
  5
214
100
AcDbEntity
  8
0
100
AcDbBlockBegin
  2
_FILLED
 70
64
 10
0.0
 20
0.0
  3
_FILLED
  1

  0
SOLID
  5
215
100
AcDbEntity
  8
0
  6
BYBLOCK
 62
0
100
AcDbTrace
 10
0.0
 20
0.0
 11
-1.0
 21
0.25
 12
-1.0
 22
-0.25
 13
-1.0
 23
-0.25
  0
ENDBLK
  5
216
100
AcDbEntity
  8
0
  6
BYBLOCK
 62
0
100
AcDbBlockEnd
  0
ENDSEC
  0
SECTION
  2
ENTITIES
  0
LINE
  5
217
100
AcDbEntity
  8
0
100
AcDbLine
 62
7
  6
CONTINUOUS
 10
19.4081760989
 20
62.8200020127
 11
19.3352899548
 21
67.6197117635
  0
LINE
  5
218
100
AcDbEntity
  8
0
100
AcDbLine
 62
7
  6
CONTINUOUS
 10
20.5423451888
 20
66.1253832642
 11
20.5233376165
 21
62.8252571264
  0
LINE
  5
219
100
AcDbEntity
  8
0
100
AcDbLine
 62
7
  6
CONTINUOUS
 10
23.5880073273
 20
67.6392379644
 11
23.5880073273
 21
44.2892379644
  0
LWPOLYLINE
  5
21A
100
AcDbEntity
  8
0
100
AcDbPolyline
 62
7
  6
CONTINUOUS
 90
18
 70
0
 10
37.9311043425
 20
14.3408413833
 10
37.8232167349
 20
14.6279665844
 10
37.6568638738
 20
15.098419964
 10
37.5008996029
 20
15.5764446898
 10
37.3590035245
 20
16.0579051007
 10
37.2346201871
 20
16.5383528078
 10
37.1299410417
 20
17.0178892503
 10
37.0462348305
 20
17.4973985421
 10
36.984777985
 20
17.9738200422
 10
36.9464863641
 20
18.4470819748
 10
36.9313456155
 20
18.9190275376
 10
36.9395034603
 20
19.3886923509
 10
36.9702521868
 20
19.8549738562
 10
37.0227572057
 20
20.3183888307
 10
37.0959718182
 20
20.7808805244
 10
37.1891920796
 20
21.2433911864
 10
37.3012325519
 20
21.7061140852
 10
37.4137399747
 20
22.1128113834
  0
LWPOLYLINE
  5
21B
100
AcDbEntity
  8
0
100
AcDbPolyline
 62
7
  6
CONTINUOUS
 90
5
 70
0
 10
37.9311040931
 20
10.3053992208
 10
38.044807414
 20
10.001251559
 10
38.1934405067
 20
9.5815078338
 10
38.334674247
 20
9.1535124085
 10
38.4485268718
 20
8.7792853524
  0
LINE
  5
21C
100
AcDbEntity
  8
0
100
AcDbLine
 62
7
  6
CONTINUOUS
 10
27.0380073273
 20
75.9139274993
 11
27.0380073273
 21
67.6392379644
  0
LINE
  5
21D
100
AcDbEntity
  8
0
100
AcDbLine
 62
7
  6
CONTINUOUS
 10
28.3686531148
 20
74.6392379644
 11
28.5664064833
 21
96.6393002115
  0
LWPOLYLINE
  5
21E
100
AcDbEntity
  8
0
100
AcDbPolyline
 62
7
  6
CONTINUOUS
 90
5
 70
0
 10
37.9311049174
 20
23.6387395344
 10
38.0448785276
 20
23.334407001
 10
38.193421801
 20
22.9149176085
 10
38.3346349697
 20
22.4869787295
 10
38.4485267995
 20
22.1126156707
  0
LWPOLYLINE
  5
21F
100
AcDbEntity
  8
0
100
AcDbPolyline
 62
7
  6
CONTINUOUS
 90
8
 70
0
 10
39.8885610986
 20
9.199168935
 10
39.7840165804
 20
9.544163638
 10
39.6489212019
 20
9.9585618369
 10
39.5015212773
 20
10.3820408102
 10
39.3414055357
 20
10.8176268485
 10
39.1705823989
 20
11.2617996261
 10
38.9944055491
 20
11.7044599093
 10
38.7420533002
 20
12.3226493793
  0
LINE
  5
220
100
AcDbEntity
  8
0
100
AcDbLine
 62
7
  6
CONTINUOUS
 10
30.8670063263
 20
79.5341384764
 11
30.8670063263
 21
58.9812402617
  0
LINE
  5
221
100
AcDbEntity
  8
0
100
AcDbLine
 62
7
  6
CONTINUOUS
 10
23.5880073273
 20
44.2892379644
 11
52.1880073273
 21
44.2892379644
  0
LWPOLYLINE
  5
222
100
AcDbEntity
  8
0
100
AcDbPolyline
 62
7
  6
CONTINUOUS
 90
18
 70
0
 10
37.9311051667
 20
27.6741173929
 10
37.8221901978
 20
27.9640703681
 10
37.6562261593
 20
28.4336078892
 10
37.5003172787
 20
28.9117189504
 10
37.3583441719
 20
29.3937281439
 10
37.2339217531
 20
29.8746093007
 10
37.1293026708
 20
30.3542258157
 10
37.045737274
 20
30.8336634547
 10
36.9844851236
 20
31.3099625104
 10
36.9463932965
 20
31.7830998662
 10
36.9313791577
 20
32.2548246244
 10
36.9395818088
 20
32.7240668736
 10
36.9703187071
 20
33.1895978714
 10
37.0227703039
 20
33.6521005311
 10
37.0959133261
 20
34.1138770066
 10
37.1890863915
 20
34.5761659296
 10
37.3011490512
 20
35.0391007061
 10
37.4137375137
 20
35.446137392
  0
LWPOLYLINE
  5
223
100
AcDbEntity
  8
0
100
AcDbPolyline
 62
7
  6
CONTINUOUS
 90
8
 70
0
 10
39.8885628021
 20
22.5324931607
 10
39.7840646004
 20
22.8773317663
 10
39.6489640264
 20
23.2917383882
 10
39.5015152159
 20
23.7153664868
 10
39.3412652118
 20
24.1513494675
 10
39.1702916365
 20
24.595940421
 10
38.994090422
 20
25.0386402016
 10
38.742034201
 20
25.6560322131
  0
LINE
  5
224
100
AcDbEntity
  8
0
100
AcDbLine
 62
7
  6
CONTINUOUS
 10
38.4484697471
 20
22.1128111598
 11
38.4485267995
 21
22.1126156707
  0
LINE
  5
225
100
AcDbEntity
  8
0
100
AcDbLine
 62
7
  6
CONTINUOUS
 10
39.8886095461
 20
22.5323329547
 11
39.8885628021
 21
22.5324931607
  0
LWPOLYLINE
  5
226
100
AcDbEntity
  8
0
100
AcDbPolyline
 62
7
  6
CONTINUOUS
 90
20
 70
0
 10
38.4484697471
 20
22.1128111598
 10
38.5609771204
 20
21.7061138602
 10
38.6730175352
 20
21.2433909674
 10
38.7662377385
 20
20.7808803185
 10
38.8394522924
 20
20.3183886459
 10
38.8919572532
 20
19.8549736991
 10
38.9227059221
 20
19.3886922245
 10
38.9308637097
 20
18.9190274441
 10
38.9157229045
 20
18.4470819173
 10
38.8774312277
 20
17.9738200233
 10
38.8159743264
 20
17.4973985627
 10
38.7322680595
 20
17.0178893116
 10
38.6275888595
 20
16.5383529141
 10
38.5032054695
 20
16.0579052571
 10
38.3613093399
 20
15.5764448996
 10
38.2053450197
 20
15.0984202286
 10
38.0389921123
 20
14.6279669069
 10
37.8635200745
 20
14.1609769893
 10
37.6784621794
 20
13.6891977339
 10
37.4849138813
 20
13.2098641163
  0
LINE
  5
227
100
AcDbEntity
  8
0
100
AcDbLine
 62
7
  6
CONTINUOUS
 10
34.5420063263
 20
68.6800493369
 11
34.5420063263
 21
79.5341384764
  0
LWPOLYLINE
  5
228
100
AcDbEntity
  8
0
100
AcDbPolyline
 62
7
  6
CONTINUOUS
 90
7
 70
0
 10
37.931105991
 20
41.0074876822
 10
37.8231192608
 20
41.2948852266
 10
37.6568211281
 20
41.765209028
 10
37.5009140883
 20
42.2430779541
 10
37.3590716355
 20
42.7243445404
 10
37.2346921596
 20
43.2047160458
 10
37.1299440556
 20
43.6844794005
  0
LWPOLYLINE
  5
229
100
AcDbEntity
  8
0
100
AcDbPolyline
 62
7
  6
CONTINUOUS
 90
5
 70
0
 10
37.9311057416
 20
36.9720657234
 10
38.044769041
 20
36.6680218689
 10
38.1934070691
 20
36.2482625433
 10
38.3346362498
 20
35.820291221
 10
38.448530623
 20
35.4459426669
  0
LWPOLYLINE
  5
22A
100
AcDbEntity
  8
0
100
AcDbPolyline
 62
7
  6
CONTINUOUS
 90
8
 70
0
 10
39.8885606514
 20
35.8658406469
 10
39.7839461345
 20
36.2110557076
 10
39.6488476094
 20
36.6254568408
 10
39.5014525267
 20
37.0489132088
 10
39.341347134
 20
37.4844474131
 10
39.1705271942
 20
37.9285853401
 10
38.9943389774
 20
38.3712699717
 10
38.7420595335
 20
38.9893057276
  0
LINE
  5
22B
100
AcDbEntity
  8
0
100
AcDbLine
 62
7
  6
CONTINUOUS
 10
38.4484738566
 20
35.4461371685
 11
38.448530623
 21
35.4459426669
  0
LINE
  5
22C
100
AcDbEntity
  8
0
100
AcDbLine
 62
7
  6
CONTINUOUS
 10
39.8886065424
 20
35.865683381
 11
39.8885606514
 21
35.8658406469
  0
LWPOLYLINE
  5
22D
100
AcDbEntity
  8
0
100
AcDbPolyline
 62
7
  6
CONTINUOUS
 90
20
 70
0
 10
38.4484738566
 20
35.4461371685
 10
38.5610622695
 20
35.0391004811
 10
38.6731248717
 20
34.5761657107
 10
38.7662978789
 20
34.113876801
 10
38.8394408427
 20
33.652100347
 10
38.8918923813
 20
33.1895977154
 10
38.9226292222
 20
32.7240667488
 10
38.9308318163
 20
32.2548245326
 10
38.9158176211
 20
31.7830998104
 10
38.8777257381
 20
31.3099624931
 10
38.816473532
 20
30.8336634769
 10
38.7329080796
 20
30.3542258788
 10
38.6282889429
 20
29.8746094087
 10
38.5038664712
 20
29.3937283017
 10
38.3618933131
 20
28.911719161
 10
38.2059843831
 20
28.4336081543
 10
38.0400202983
 20
27.9640706908
 10
37.865099275
 20
27.4983968507
 10
37.6803060063
 20
27.0271537545
 10
37.4864772062
 20
26.5470043698
  0
LWPOLYLINE
  5
22E
100
AcDbEntity
  8
0
100
AcDbPolyline
 62
7
  6
CONTINUOUS
 90
11
 70
0
 10
35.5502142348
 20
44.0271147574
 10
35.6328127227
 20
43.5296070273
 10
35.7365975608
 20
43.0263511349
 10
35.8621895474
 20
42.5136587616
 10
36.0079282922
 20
41.9965375848
 10
36.1723913213
 20
41.4753779244
 10
36.3541251253
 20
40.9482966356
 10
36.5499165171
 20
40.4175207121
 10
36.7547658733
 20
39.8898027484
 10
36.9648715526
 20
39.3677698271
 10
37.1201521843
 20
38.9893058285
  0
LINE
  5
22F
100
AcDbEntity
  8
0
100
AcDbLine
 62
7
  6
CONTINUOUS
 10
35.5179315288
 20
44.2892379644
 11
35.5502142348
 21
44.0271147574
  0
LWPOLYLINE
  5
230
100
AcDbEntity
  8
0
100
AcDbPolyline
 62
7
  6
CONTINUOUS
 90
3
 70
0
 10
37.1299440556
 20
43.6844794005
 10
37.0461691651
 20
44.1644013739
 10
37.0300756713
 20
44.2892379644
  0
LINE
  5
231
100
AcDbEntity
  8
0
100
AcDbLine
 62
7
  6
CONTINUOUS
 10
41.2420063263
 20
68.6800493369
 11
41.2420063263
 21
79.5341384764
  0
LINE
  5
232
100
AcDbEntity
  8
0
100
AcDbLine
 62
7
  6
CONTINUOUS
 10
38.832136796
 20
44.2892379644
 11
38.8160432898
 21
44.1644014011
  0
LWPOLYLINE
  5
233
100
AcDbEntity
  8
0
100
AcDbPolyline
 62
7
  6
CONTINUOUS
 90
10
 70
0
 10
38.8160432898
 20
44.1644014011
 10
38.732268344
 20
43.6844794693
 10
38.6275201859
 20
43.2047161602
 10
38.5031406578
 20
42.7243447057
 10
38.3612981544
 20
42.2430781735
 10
38.2053910659
 20
41.7652093029
 10
38.0390928873
 20
41.29488556
 10
37.8636868532
 20
40.8280574201
 10
37.6786672083
 20
40.356376908
 10
37.4851242211
 20
39.8770596393
  0
LWPOLYLINE
  5
234
100
AcDbEntity
  8
0
100
AcDbPolyline
 62
7
  6
CONTINUOUS
 90
21
 70
0
 10
35.9736048759
 20
35.8656837693
 10
35.8410009908
 20
35.383203552
 10
35.7136949779
 20
34.8488982755
 10
35.608965121
 20
34.3184102584
 10
35.5284798349
 20
33.7944014517
 10
35.4721824035
 20
33.2756601673
 10
35.4396092939
 20
32.7571100464
 10
35.4315402241
 20
32.2344633273
 10
35.4480728646
 20
31.7112710455
 10
35.4885704879
 20
31.1936093264
 10
35.5508666183
 20
30.6886451871
 10
35.6337331322
 20
30.1907112337
 10
35.7378501271
 20
29.6873231478
 10
35.8637252886
 20
29.1748131445
 10
36.0096228975
 20
28.657900687
 10
36.1741629894
 20
28.1367679563
 10
36.3560480761
 20
27.6093917943
 10
36.5520130764
 20
27.0784449816
 10
36.7568258937
 20
26.5512425578
 10
36.9666135093
 20
26.030286542
 10
37.1201758684
 20
25.656032314
  0
LINE
  5
235
100
AcDbEntity
  8
0
100
AcDbLine
 62
7
  6
CONTINUOUS
 10
35.9736048759
 20
35.8656837693
 11
35.9736507668
 21
35.8658410352
  0
LWPOLYLINE
  5
236
100
AcDbEntity
  8
0
100
AcDbPolyline
 62
7
  6
CONTINUOUS
 90
3
 70
0
 10
40.2293996729
 20
43.5296069906
 10
40.3119982144
 20
44.027114676
 10
40.3442809618
 20
44.2892379644
  0
LWPOLYLINE
  5
237
100
AcDbEntity
  8
0
100
AcDbPolyline
 62
7
  6
CONTINUOUS
 90
21
 70
0
 10
35.9736002237
 20
22.5323333431
 10
35.8409887868
 20
22.0498989125
 10
35.7136755601
 20
21.5156744074
 10
35.6089612349
 20
20.9850512207
 10
35.5285407329
 20
20.4607904643
 10
35.4722647581
 20
19.9419475261
 10
35.4396095483
 20
19.4235314957
 10
35.4314088735
 20
18.9013562786
 10
35.447874126
 20
18.3788475521
 10
35.4883939418
 20
17.861825348
 10
35.5506896802
 20
17.3573946143
 10
35.6334243152
 20
16.8598258073
 10
35.7373482284
 20
16.3563837899
 10
35.8631731939
 20
15.8432285549
 10
36.0091937932
 20
15.3256152981
 10
36.173810827
 20
14.8044229082
 10
36.3554087387
 20
14.2780475413
 10
36.5508645587
 20
13.7483410328
 10
36.7553925308
 20
13.2215431993
 10
36.9652927033
 20
12.7000845739
 10
37.1201551208
 20
12.3226494801
  0
LINE
  5
238
100
AcDbEntity
  8
0
100
AcDbLine
 62
7
  6
CONTINUOUS
 10
37.4137375137
 20
35.446137392
 11
37.4136807473
 21
35.4459428906
  0
LINE
  5
239
100
AcDbEntity
  8
0
100
AcDbLine
 62
7
  6
CONTINUOUS
 10
35.9736002237
 20
22.5323333431
 11
35.9736469677
 21
22.532493549
  0
LWPOLYLINE
  5
23A
100
AcDbEntity
  8
0
100
AcDbPolyline
 62
7
  6
CONTINUOUS
 90
8
 70
0
 10
37.4136807473
 20
35.4459428906
 10
37.5275751702
 20
35.8202914542
 10
37.6688044089
 20
36.2482627861
 10
37.8174424957
 20
36.6680221216
 10
37.9698545697
 20
37.075716936
 10
38.125068076
 20
37.4748517346
 10
38.2857684407
 20
37.8766794295
 10
38.4522122825
 20
38.284988906
  0
LWPOLYLINE
  5
23B
100
AcDbEntity
  8
0
100
AcDbPolyline
 62
7
  6
CONTINUOUS
 90
9
 70
0
 10
38.8973403753
 20
39.3677701046
 10
39.1074461144
 20
39.8898029875
 10
39.3122955341
 20
40.4175209202
 10
39.5080869909
 20
40.9482968171
 10
39.6898208562
 20
41.4753780731
 10
39.8542839417
 20
41.9965376899
 10
40.0000227407
 20
42.5136588183
 10
40.1256147812
 20
43.0263511437
 10
40.2293996729
 20
43.5296069906
  0
LWPOLYLINE
  5
23C
100
AcDbEntity
  8
0
100
AcDbPolyline
 62
7
  6
CONTINUOUS
 90
8
 70
0
 10
37.0459648932
 20
38.808998283
 10
36.8678728199
 20
38.3712704818
 10
36.6916845376
 20
37.9285858432
 10
36.5208645308
 20
37.4844479031
 10
36.3607590719
 20
37.0489136805
 10
36.2133639248
 20
36.6254572895
 10
36.078265337
 20
36.2110561286
 10
35.9736507668
 20
35.8658410352
  0
LINE
  5
23D
100
AcDbEntity
  8
0
100
AcDbLine
 62
7
  6
CONTINUOUS
 10
38.8973403753
 20
39.3677701046
 11
38.4522122825
 21
38.284988906
  0
LINE
  5
23E
100
AcDbEntity
  8
0
100
AcDbLine
 62
7
  6
CONTINUOUS
 10
37.4851242211
 20
39.8770596393
 11
37.0459648932
 21
38.808998283
  0
LINE
  5
23F
100
AcDbEntity
  8
0
100
AcDbLine
 62
7
  6
CONTINUOUS
 10
30.8670063263
 20
58.9812402617
 11
44.9170063263
 21
58.9812402617
  0
LINE
  5
240
100
AcDbEntity
  8
0
100
AcDbLine
 62
7
  6
CONTINUOUS
 10
47.4153595378
 20
74.6392379644
 11
47.2176063263
 21
96.6392827468
  0
LINE
  5
241
100
AcDbEntity
  8
0
100
AcDbLine
 62
7
  6
CONTINUOUS
 10
44.9170063263
 20
58.9812402617
 11
44.9170063263
 21
79.5341384764
  0
LINE
  5
242
100
AcDbEntity
  8
0
100
AcDbLine
 62
7
  6
CONTINUOUS
 10
37.4137399747
 20
22.1128113834
 11
37.4136829223
 21
22.1126158944
  0
LWPOLYLINE
  5
243
100
AcDbEntity
  8
0
100
AcDbPolyline
 62
7
  6
CONTINUOUS
 90
8
 70
0
 10
37.4136829223
 20
22.1126158944
 10
37.5275748018
 20
22.4869789626
 10
37.6687880284
 20
22.9149178511
 10
37.8173313605
 20
23.3344072536
 10
37.9695156523
 20
23.7414842044
 10
38.1244217028
 20
24.139834838
 10
38.2848991789
 20
24.5411468035
 10
38.4513405993
 20
24.9495324702
  0
LWPOLYLINE
  5
244
100
AcDbEntity
  8
0
100
AcDbPolyline
 62
7
  6
CONTINUOUS
 90
8
 70
0
 10
37.0461073919
 20
25.4760397559
 10
36.8681197271
 20
25.038640712
 10
36.691918447
 20
24.5959409243
 10
36.5209448047
 20
24.1513499576
 10
36.3606947342
 20
23.7153669585
 10
36.2132458593
 20
23.2917388369
 10
36.0781452225
 20
22.8773321872
 10
35.9736469677
 20
22.532493549
  0
LINE
  5
245
100
AcDbEntity
  8
0
100
AcDbLine
 62
7
  6
CONTINUOUS
 10
37.4864772062
 20
26.5470043698
 11
37.0461073919
 21
25.4760397559
  0
LINE
  5
246
100
AcDbEntity
  8
0
100
AcDbLine
 62
7
  6
CONTINUOUS
 10
48.7380073273
 20
67.6392379644
 11
48.7380073273
 21
75.9153668761
  0
LWPOLYLINE
  5
247
100
AcDbEntity
  8
0
100
AcDbPolyline
 62
7
  6
CONTINUOUS
 90
8
 70
0
 10
37.4136812016
 20
8.7792855761
 10
37.5275338761
 20
9.1535126417
 10
37.6687676744
 20
9.5815080766
 10
37.8174008257
 20
10.0012518118
 10
37.9697965416
 20
10.4088985152
 10
38.1249861187
 20
10.8079715086
 10
38.2856589232
 20
11.2097374036
 10
38.4520921254
 20
11.618035942
  0
LWPOLYLINE
  5
248
100
AcDbEntity
  8
0
100
AcDbPolyline
 62
7
  6
CONTINUOUS
 90
20
 70
0
 10
38.8955967661
 20
26.0302868113
 10
39.1053844406
 20
26.5512427864
 10
39.3101973213
 20
27.0784451786
 10
39.5061623872
 20
27.6093919658
 10
39.688047536
 20
28.1367680963
 10
39.8525876848
 20
28.6579007844
 10
39.9984853485
 20
29.1748131942
 10
40.1243605643
 20
29.6873231503
 10
40.2284776132
 20
30.1907111913
 10
40.311344181
 20
30.6886451007
 10
40.3736403668
 20
31.1936091974
 10
40.4141380479
 20
31.7112708754
 10
40.430670748
 20
32.2344631183
 10
40.4226017387
 20
32.7571098017
 10
40.3900286902
 20
33.2756598923
 10
40.3337313207
 20
33.7944011507
 10
40.2532460984
 20
34.3184099331
 10
40.1485163079
 20
34.848897927
 10
40.0212103635
 20
35.3832031824
 10
39.8886065424
 20
35.865683381
  0
LINE
  5
249
100
AcDbEntity
  8
0
100
AcDbLine
 62
7
  6
CONTINUOUS
 10
38.8955967661
 20
26.0302868113
 11
38.4513405993
 21
24.9495324702
  0
LINE
  5
24A
100
AcDbEntity
  8
0
100
AcDbLine
 62
7
  6
CONTINUOUS
 10
20.5233376165
 20
62.8252571264
 11
19.4081760989
 21
62.8200020127
  0
LINE
  5
24B
100
AcDbEntity
  8
0
100
AcDbLine
 62
7
  6
CONTINUOUS
 10
56.3658882435
 20
62.8199940499
 11
55.2507268436
 21
62.8252577674
  0
LINE
  5
24C
100
AcDbEntity
  8
0
100
AcDbLine
 62
7
  6
CONTINUOUS
 10
52.1880073273
 20
44.2892379644
 11
52.1880073273
 21
67.6392379644
  0
LWPOLYLINE
  5
24D
100
AcDbEntity
  8
0
100
AcDbPolyline
 62
7
  6
CONTINUOUS
 90
20
 70
0
 10
38.8969159242
 20
12.7000848433
 10
39.1068161556
 20
13.2215434281
 10
39.3113441911
 20
13.74834123
 10
39.5068000765
 20
14.2780477127
 10
39.68839805
 20
14.8044230479
 10
39.8530151407
 20
15.3256153951
 10
39.9990357949
 20
15.8432286045
 10
40.1248608148
 20
16.3563837924
 10
40.228784782
 20
16.8598257647
 10
40.3115194709
 20
17.3573945274
 10
40.3738152646
 20
17.861825218
 10
40.4143351381
 20
18.3788473806
 10
40.4308004501
 20
18.9013560682
 10
40.4225998358
 20
19.42353125
 10
40.3899446871
 20
19.9419472504
 10
40.3336687743
 20
20.4607901627
 10
40.2532483361
 20
20.9850508949
 10
40.1485340773
 20
21.5156740586
 10
40.0212209191
 20
22.0498985428
 10
39.8886095461
 20
22.5323329547
  0
LWPOLYLINE
  5
24E
100
AcDbEntity
  8
0
100
AcDbPolyline
 62
7
  6
CONTINUOUS
 90
8
 70
0
 10
37.0458871396
 20
12.142153394
 10
36.8678029514
 20
11.7044604195
 10
36.691626036
 20
11.2618001293
 10
36.5208028323
 20
10.8176273386
 10
36.3606870243
 20
10.3820412819
 10
36.2132870354
 20
9.9585622857
 10
36.0781915942
 20
9.5441640589
 10
35.9736470228
 20
9.1991693233
  0
LINE
  5
24F
100
AcDbEntity
  8
0
100
AcDbLine
 62
7
  6
CONTINUOUS
 10
38.8969159242
 20
12.7000848433
 11
38.4520921254
 21
11.618035942
  0
LINE
  5
250
100
AcDbEntity
  8
0
100
AcDbLine
 62
7
  6
CONTINUOUS
 10
37.4849138813
 20
13.2098641163
 11
37.0458871396
 21
12.142153394
  0
LINE
  5
251
100
AcDbEntity
  8
0
100
AcDbLine
 62
7
  6
CONTINUOUS
 10
23.5880073273
 20
66.1397357152
 11
20.5423451888
 21
66.1253832642
  0
LINE
  5
252
100
AcDbEntity
  8
0
100
AcDbLine
 62
7
  6
CONTINUOUS
 10
19.3352899548
 20
67.6197117635
 11
23.5880073273
 21
67.6394951673
  0
LINE
  5
253
100
AcDbEntity
  8
0
100
AcDbLine
 62
7
  6
CONTINUOUS
 10
23.5880073273
 20
67.6392379644
 11
30.8670063263
 21
67.6392379644
  0
LINE
  5
254
100
AcDbEntity
  8
0
100
AcDbLine
 62
7
  6
CONTINUOUS
 10
44.9170063263
 20
67.6392379644
 11
52.1880073273
 21
67.6392379644
  0
LINE
  5
255
100
AcDbEntity
  8
0
100
AcDbLine
 62
7
  6
CONTINUOUS
 10
34.5420063263
 20
68.6800493369
 11
41.2420063263
 21
68.6800493369
  0
LINE
  5
256
100
AcDbEntity
  8
0
100
AcDbLine
 62
7
  6
CONTINUOUS
 10
55.2317192751
 20
66.1253832642
 11
52.1880073273
 21
66.139726525
  0
LINE
  5
257
100
AcDbEntity
  8
0
100
AcDbLine
 62
7
  6
CONTINUOUS
 10
52.1880073273
 20
67.6394905723
 11
56.4387745084
 21
67.6197117635
  0
LINE
  5
258
100
AcDbEntity
  8
0
100
AcDbLine
 62
7
  6
CONTINUOUS
 10
55.2507268436
 20
62.8252577674
 11
55.2317192751
 21
66.1253832642
  0
LINE
  5
259
100
AcDbEntity
  8
0
100
AcDbLine
 62
7
  6
CONTINUOUS
 10
56.4387745084
 20
67.6197117635
 11
56.3658882435
 21
62.8199940499
  0
LINE
  5
25A
100
AcDbEntity
  8
0
100
AcDbLine
 62
7
  6
CONTINUOUS
 10
48.7380073273
 20
74.6392379644
 11
44.9170063263
 21
74.6392379644
  0
LINE
  5
25B
100
AcDbEntity
  8
0
100
AcDbLine
 62
7
  6
CONTINUOUS
 10
41.2420063263
 20
74.6392379644
 11
34.5420063263
 21
74.6392379644
  0
LINE
  5
25C
100
AcDbEntity
  8
0
100
AcDbLine
 62
7
  6
CONTINUOUS
 10
30.8670063263
 20
74.6392379644
 11
27.0380073273
 21
74.6392379644
  0
LINE
  5
25D
100
AcDbEntity
  8
0
100
AcDbLine
 62
7
  6
CONTINUOUS
 10
47.4039468841
 20
75.9088956928
 11
48.7380073273
 21
75.9088956928
  0
LINE
  5
25E
100
AcDbEntity
  8
0
100
AcDbLine
 62
7
  6
CONTINUOUS
 10
28.3800664911
 20
75.9089760754
 11
27.0380073273
 21
75.9089760754
  0
LINE
  5
25F
100
AcDbEntity
  8
0
100
AcDbLine
 62
7
  6
CONTINUOUS
 10
28.3801109982
 20
75.9139274993
 11
27.0380073273
 21
75.9139274993
  0
LINE
  5
260
100
AcDbEntity
  8
0
100
AcDbLine
 62
7
  6
CONTINUOUS
 10
47.4038887161
 20
75.9153668761
 11
48.7380073273
 21
75.9153668761
  0
LINE
  5
261
100
AcDbEntity
  8
0
100
AcDbLine
 62
7
  6
CONTINUOUS
 10
30.8670063263
 20
79.2812402617
 11
34.5420063263
 21
79.2812402617
  0
LINE
  5
262
100
AcDbEntity
  8
0
100
AcDbLine
 62
7
  6
CONTINUOUS
 10
41.2420063263
 20
79.2812402617
 11
44.9170063263
 21
79.2812402617
  0
LINE
  5
263
100
AcDbEntity
  8
0
100
AcDbLine
 62
7
  6
CONTINUOUS
 10
30.8670063263
 20
79.5341384764
 11
34.5420063263
 21
79.5341384764
  0
LINE
  5
264
100
AcDbEntity
  8
0
100
AcDbLine
 62
7
  6
CONTINUOUS
 10
41.2420063263
 20
79.5341384764
 11
44.9170063263
 21
79.5341384764
  0
LINE
  5
265
100
AcDbEntity
  8
0
100
AcDbLine
 62
7
  6
CONTINUOUS
 10
47.3036459318
 20
87.0673766311
 11
28.4803667208
 21
87.0673766311
  0
LINE
  5
266
100
AcDbEntity
  8
0
100
AcDbLine
 62
7
  6
CONTINUOUS
 10
28.5657594589
 20
96.5673187539
 11
47.2182531937
 21
96.5673187539
  0
LINE
  5
267
100
AcDbEntity
  8
0
100
AcDbLine
 62
7
  6
CONTINUOUS
 10
47.2176063263
 20
96.6392827468
 11
28.5664063263
 21
96.6392827468
  0
ARC
  5
268
100
AcDbEntity
  8
0
100
AcDbCircle
 62
7
  6
CONTINUOUS
 10
45.6264523656
 20
43.7722491408
 40
9.5776113202
100
AcDbArc
 50
176.905773544
 51
178.6339980847
  0
SPLINE
  5
269
100
AcDbEntity
  8
0
100
AcDbSpline
 62
7
  6
CONTINUOUS
 70
0
 71
3
 72
12
 73
8
 74
0
 42
0.0000001
 43
0.0000001
 44
0.0000000001
 40
0.0
 40
0.0
 40
0.0
 40
0.0
 40
0.1749361674
 40
0.3389874707
 40
0.4895660801
 40
0.6245459854
 40
1.0
 40
1.0
 40
1.0
 40
1.0
 10
37.1839347346
 20
8.7033488704
 30
0.0
 10
37.1985694096
 20
8.7033533898
 30
0.0
 10
37.2269543672
 20
8.703993775
 30
0.0
 10
37.2677306891
 20
8.7071076712
 30
0.0
 10
37.3052488932
 20
8.7126845898
 30
0.0
 10
37.3577153323
 20
8.7251859492
 30
0.0
 10
37.4047713561
 20
8.7491046001
 30
0.0
 10
37.4136644675
 20
8.779228772
 30
0.0
  0
SPLINE
  5
26A
100
AcDbEntity
  8
0
100
AcDbSpline
 62
7
  6
CONTINUOUS
 70
0
 71
3
 72
23
 73
19
 74
0
 42
0.0000001
 43
0.0000001
 44
0.0000000001
 40
0.0
 40
0.0
 40
0.0
 40
0.0
 40
0.0117860156
 40
0.024443859
 40
0.0385877392
 40
0.0545648765
 40
0.0924955808
 40
0.1379085472
 40
0.188763251
 40
0.2451379159
 40
0.3087332081
 40
0.3810759774
 40
0.5450644054
 40
0.7169534618
 40
0.7989502353
 40
0.8746372465
 40
0.9418867607
 40
1.0
 40
1.0
 40
1.0
 40
1.0
 10
35.9736638034
 20
9.1992263728
 30
0.0
 10
35.9721456634
 20
9.1940760094
 30
0.0
 10
35.9706998867
 20
9.182836807
 30
0.0
 10
35.9733676519
 20
9.165291252
 30
0.0
 10
35.980397445
 20
9.1469897553
 30
0.0
 10
35.9961689902
 20
9.1201771851
 30
0.0
 10
36.0265105371
 20
9.0861253616
 30
0.0
 10
36.0735582287
 20
9.0469345669
 30
0.0
 10
36.1310845296
 20
9.0077065621
 30
0.0
 10
36.1984273935
 20
8.9686031582
 30
0.0
 10
36.2766459084
 20
8.9290378353
 30
0.0
 10
36.4015669411
 20
8.8735521481
 30
0.0
 10
36.5767329072
 20
8.8103187252
 30
0.0
 10
36.7606396754
 20
8.7602086033
 30
0.0
 10
36.9078488722
 20
8.730437508
 30
0.0
 10
37.0091556655
 20
8.7147134096
 30
0.0
 10
37.1003412333
 20
8.7056092957
 30
0.0
 10
37.1574596435
 20
8.7033570442
 30
0.0
 10
37.1839347577
 20
8.7033488704
 30
0.0
  0
SPLINE
  5
26B
100
AcDbEntity
  8
0
100
AcDbSpline
 62
7
  6
CONTINUOUS
 70
0
 71
3
 72
10
 73
6
 74
0
 42
0.0000001
 43
0.0000001
 44
0.0000000001
 40
0.0
 40
0.0
 40
0.0
 40
0.0
 40
0.2452936184
 40
0.4953970247
 40
1.0
 40
1.0
 40
1.0
 40
1.0
 10
39.2851593951
 20
44.2840443459
 30
0.0
 10
39.1549943694
 20
43.8616654502
 30
0.0
 10
38.8552357828
 20
43.0198755221
 30
0.0
 10
38.1575372553
 20
41.3583391289
 30
0.0
 10
37.5876614377
 20
40.1231202926
 30
0.0
 10
37.2408566304
 20
39.282644796
 30
0.0
  0
SPLINE
  5
26C
100
AcDbEntity
  8
0
100
AcDbSpline
 62
7
  6
CONTINUOUS
 70
0
 71
3
 72
10
 73
6
 74
0
 42
0.0000001
 43
0.0000001
 44
0.0000000001
 40
0.0
 40
0.0
 40
0.0
 40
0.0
 40
0.2493714089
 40
0.6259128057
 40
1.0
 40
1.0
 40
1.0
 40
1.0
 10
38.6236755193
 20
38.7014510878
 30
0.0
 10
38.5086483245
 20
38.4225570913
 30
0.0
 10
38.2102788134
 20
37.726525602
 30
0.0
 10
37.7156852179
 20
36.6225196204
 30
0.0
 10
37.3545269113
 20
35.7891620312
 30
0.0
 10
37.1838846005
 20
35.3700037653
 30
0.0
  0
SPLINE
  5
26D
100
AcDbEntity
  8
0
100
AcDbSpline
 62
7
  6
CONTINUOUS
 70
0
 71
3
 72
12
 73
8
 74
0
 42
0.0000001
 43
0.0000001
 44
0.0000000001
 40
0.0
 40
0.0
 40
0.0
 40
0.0
 40
0.3754012199
 40
0.5103798582
 40
0.6609671492
 40
0.8250368968
 40
1.0
 40
1.0
 40
1.0
 40
1.0
 10
37.4136807473
 20
35.4459428906
 30
0.0
 10
37.4048230501
 20
35.415812264
 30
0.0
 10
37.357770901
 20
35.3918610136
 30
0.0
 10
37.305310943
 20
35.3793519272
 30
0.0
 10
37.2677902811
 20
35.3737689721
 30
0.0
 10
37.2270090124
 20
35.3706512155
 30
0.0
 10
37.1986197153
 20
35.3700090113
 30
0.0
 10
37.1839825073
 20
35.3700037653
 30
0.0
  0
SPLINE
  5
26E
100
AcDbEntity
  8
0
100
AcDbSpline
 62
7
  6
CONTINUOUS
 70
0
 71
3
 72
18
 73
14
 74
0
 42
0.0000001
 43
0.0000001
 44
0.0000000001
 40
0.0
 40
0.0
 40
0.0
 40
0.0
 40
0.1295334713
 40
0.2558529402
 40
0.3178521992
 40
0.3792129342
 40
0.4400999657
 40
0.5007125237
 40
0.5612860151
 40
0.6220621859
 40
0.7450312959
 40
0.8709250203
 40
1.0
 40
1.0
 40
1.0
 40
1.0
 10
37.1838846005
 20
35.3700037654
 30
0.0
 10
37.0207401698
 20
34.9692737582
 30
0.0
 10
36.7152680602
 20
34.1706340847
 30
0.0
 10
36.40880308
 20
33.1525724911
 30
0.0
 10
36.2287641871
 20
32.3378832168
 30
0.0
 10
36.129555719
 20
31.7301639057
 30
0.0
 10
36.0668817829
 20
31.1222167875
 30
0.0
 10
36.0426236707
 20
30.5141330182
 30
0.0
 10
36.0570170877
 20
29.9060979656
 30
0.0
 10
36.1274668985
 20
29.0926043227
 30
0.0
 10
36.3110876549
 20
28.0722551291
 30
0.0
 10
36.6617955522
 20
26.8579024982
 30
0.0
 10
36.9600199558
 20
26.059530683
 30
0.0
 10
37.1202299859
 20
25.6592676202
 30
0.0
  0
SPLINE
  5
26F
100
AcDbEntity
  8
0
100
AcDbSpline
 62
7
  6
CONTINUOUS
 70
0
 71
3
 72
10
 73
6
 74
0
 42
0.0000001
 43
0.0000001
 44
0.0000000001
 40
0.0
 40
0.0
 40
0.0
 40
0.0
 40
0.2493127063
 40
0.6257437751
 40
1.0
 40
1.0
 40
1.0
 40
1.0
 10
38.6236501532
 20
12.0347455465
 30
0.0
 10
38.5086547175
 20
11.7559203928
 30
0.0
 10
38.2103835985
 20
11.0600821111
 30
0.0
 10
37.7157906083
 20
9.9560966811
 30
0.0
 10
37.3545969433
 20
9.1226922282
 30
0.0
 10
37.1838857647
 20
8.7033488868
 30
0.0
  0
SPLINE
  5
270
100
AcDbEntity
  8
0
100
AcDbSpline
 62
7
  6
CONTINUOUS
 70
0
 71
3
 72
23
 73
19
 74
0
 42
0.0000001
 43
0.0000001
 44
0.0000000001
 40
0.0
 40
0.0
 40
0.0
 40
0.0
 40
0.0581007569
 40
0.1253306908
 40
0.2009921861
 40
0.2829607181
 40
0.4547989391
 40
0.6187672384
 40
0.6911179102
 40
0.7547279239
 40
0.8111134883
 40
0.8619783791
 40
0.907413091
 40
0.9453806984
 40
0.9613774905
 40
0.9755394573
 40
0.988210457
 40
1.0
 40
1.0
 40
1.0
 40
1.0
 10
37.1838846005
 20
35.3700037653
 30
0.0
 10
37.1574203174
 20
35.3700132449
 30
0.0
 10
37.1003277235
 20
35.3722659288
 30
0.0
 10
37.0091860045
 20
35.3813654947
 30
0.0
 10
36.9079315918
 20
35.3970790692
 30
0.0
 10
36.7607966275
 20
35.4268294067
 30
0.0
 10
36.5769662152
 20
35.4769060571
 30
0.0
 10
36.4018555225
 20
35.5401005034
 30
0.0
 10
36.2769498181
 20
35.5955578173
 30
0.0
 10
36.1987252023
 20
35.6351070491
 30
0.0
 10
36.1313718166
 20
35.6741943983
 30
0.0
 10
36.073825704
 20
35.7134034263
 30
0.0
 10
36.0267410876
 20
35.7525796095
 30
0.0
 10
35.9963470488
 20
35.786617731
 30
0.0
 10
35.9805155178
 20
35.8134266527
 30
0.0
 10
35.9734357202
 20
35.8317287962
 30
0.0
 10
35.970709336
 20
35.8492766248
 30
0.0
 10
35.9721087564
 20
35.8605263798
 30
0.0
 10
35.9736048759
 20
35.8656837693
 30
0.0
  0
SPLINE
  5
271
100
AcDbEntity
  8
0
100
AcDbSpline
 62
7
  6
CONTINUOUS
 70
0
 71
3
 72
18
 73
14
 74
0
 42
0.0000001
 43
0.0000001
 44
0.0000000001
 40
0.0
 40
0.0
 40
0.0
 40
0.0
 40
0.1200541736
 40
0.1797827905
 40
0.2395897185
 40
0.2996416873
 40
0.3601386357
 40
0.4213434877
 40
0.4834502469
 40
0.6100707708
 40
0.7391943832
 40
0.869911889
 40
1.0
 40
1.0
 40
1.0
 40
1.0
 10
39.6587616269
 20
22.6084494971
 30
0.0
 10
39.7313277078
 20
22.1962098953
 30
0.0
 10
39.8041978927
 20
21.5714807445
 30
0.0
 10
39.8190742533
 20
20.7358148106
 30
0.0
 10
39.7893393217
 20
20.1099114706
 30
0.0
 10
39.7196213548
 20
19.4845575847
 30
0.0
 10
39.6109854166
 20
18.8598711987
 30
0.0
 10
39.4661810004
 20
18.2352734753
 30
0.0
 10
39.2269318998
 20
17.3970381945
 30
0.0
 10
38.8547783427
 20
16.3520481184
 30
0.0
 10
38.3329366193
 20
15.1094908393
 30
0.0
 10
37.7778455886
 20
13.868499653
 30
0.0
 10
37.4138058065
 20
13.0351006055
 30
0.0
 10
37.2407996009
 20
12.6158308073
 30
0.0
  0
SPLINE
  5
272
100
AcDbEntity
  8
0
100
AcDbSpline
 62
7
  6
CONTINUOUS
 70
0
 71
3
 72
12
 73
8
 74
0
 42
0.0000001
 43
0.0000001
 44
0.0000000001
 40
0.0
 40
0.0
 40
0.0
 40
0.0
 40
0.3753726591
 40
0.5103525793
 40
0.6609455035
 40
0.825024647
 40
1.0
 40
1.0
 40
1.0
 40
1.0
 10
39.8885628021
 20
22.5324931607
 30
0.0
 10
39.8797178447
 20
22.5626271112
 30
0.0
 10
39.8326624311
 20
22.5865884766
 30
0.0
 10
39.7802021308
 20
22.599099054
 30
0.0
 10
39.7426776663
 20
22.6046834821
 30
0.0
 10
39.7018916136
 20
22.6078018889
 30
0.0
 10
39.6734986932
 20
22.6084442471
 30
0.0
 10
39.6588595337
 20
22.608449497
 30
0.0
  0
SPLINE
  5
273
100
AcDbEntity
  8
0
100
AcDbSpline
 62
7
  6
CONTINUOUS
 70
0
 71
3
 72
10
 73
6
 74
0
 42
0.0000001
 43
0.0000001
 44
0.0000000001
 40
0.0
 40
0.0
 40
0.0
 40
0.0
 40
0.2556658517
 40
0.5076356362
 40
1.0
 40
1.0
 40
1.0
 40
1.0
 10
38.7416064943
 20
25.6535572801
 30
0.0
 10
38.8424741028
 20
25.4015761465
 30
0.0
 10
39.0353813912
 20
24.8981797969
 30
0.0
 10
39.3745357349
 20
23.8921202975
 30
0.0
 10
39.5681456231
 20
23.1232386885
 30
0.0
 10
39.6587616269
 20
22.6084494971
 30
0.0
  0
SPLINE
  5
274
100
AcDbEntity
  8
0
100
AcDbSpline
 62
7
  6
CONTINUOUS
 70
0
 71
3
 72
23
 73
19
 74
0
 42
0.0000001
 43
0.0000001
 44
0.0000000001
 40
0.0
 40
0.0
 40
0.0
 40
0.0
 40
0.0580996057
 40
0.1253279595
 40
0.2009875443
 40
0.2829541142
 40
0.4547891618
 40
0.6187568289
 40
0.6911085365
 40
0.7547199936
 40
0.811106497
 40
0.8619720851
 40
0.9074082315
 40
0.9453782488
 40
0.961376229
 40
0.9755391832
 40
0.9882107155
 40
1.0
 40
1.0
 40
1.0
 40
1.0
 10
39.6587616269
 20
22.6084494971
 30
0.0
 10
39.632298341
 20
22.6084400248
 30
0.0
 10
39.5752080114
 20
22.6061876347
 30
0.0
 10
39.4840699559
 20
22.5970892074
 30
0.0
 10
39.3828196171
 20
22.5813775627
 30
0.0
 10
39.2356899689
 20
22.5516306962
 30
0.0
 10
39.0518643595
 20
22.5015595165
 30
0.0
 10
38.8767562908
 20
22.4383714501
 30
0.0
 10
38.7518501402
 20
22.3829191148
 30
0.0
 10
38.6736239191
 20
22.3433730942
 30
0.0
 10
38.6062686854
 20
22.3042889376
 30
0.0
 10
38.5487200604
 20
22.2650833727
 30
0.0
 10
38.5016316299
 20
22.2259103215
 30
0.0
 10
38.4712325641
 20
22.1918749459
 30
0.0
 10
38.4553955943
 20
22.1650675166
 30
0.0
 10
38.4483114054
 20
22.1467661911
 30
0.0
 10
38.4455799689
 20
22.129218979
 30
0.0
 10
38.4469754805
 20
22.117968864
 30
0.0
 10
38.4484697471
 20
22.1128111598
 30
0.0
  0
SPLINE
  5
275
100
AcDbEntity
  8
0
100
AcDbSpline
 62
7
  6
CONTINUOUS
 70
0
 71
3
 72
12
 73
8
 74
0
 42
0.0000001
 43
0.0000001
 44
0.0000000001
 40
0.0
 40
0.0
 40
0.0
 40
0.0
 40
0.1749361478
 40
0.3389874349
 40
0.4895660326
 40
0.6245459321
 40
1.0
 40
1.0
 40
1.0
 40
1.0
 10
38.6782733274
 20
8.7033485645
 30
0.0
 10
38.663638653
 20
8.7033530874
 30
0.0
 10
38.6352536965
 20
8.7039934799
 30
0.0
 10
38.5944773764
 20
8.7071073872
 30
0.0
 10
38.5569591743
 20
8.7126843171
 30
0.0
 10
38.5044927311
 20
8.7251856949
 30
0.0
 10
38.4574367157
 20
8.749104369
 30
0.0
 10
38.4485436059
 20
8.7792285484
 30
0.0
  0
SPLINE
  5
276
100
AcDbEntity
  8
0
100
AcDbSpline
 62
7
  6
CONTINUOUS
 70
0
 71
3
 72
23
 73
19
 74
0
 42
0.0000001
 43
0.0000001
 44
0.0000000001
 40
0.0
 40
0.0
 40
0.0
 40
0.0
 40
0.0117860201
 40
0.0244438677
 40
0.0385877514
 40
0.0545648916
 40
0.0924956002
 40
0.1379085693
 40
0.1887632747
 40
0.2451379399
 40
0.3087332313
 40
0.3810759989
 40
0.5450644221
 40
0.7169534726
 40
0.7989502429
 40
0.8746372512
 40
0.9418867628
 40
1.0
 40
1.0
 40
1.0
 40
1.0
 10
39.888544318
 20
9.1992259844
 30
0.0
 10
39.890062458
 20
9.1940756187
 30
0.0
 10
39.8915082348
 20
9.1828364119
 30
0.0
 10
39.8888404694
 20
9.1652908505
 30
0.0
 10
39.8818106757
 20
9.1469893478
 30
0.0
 10
39.8660391298
 20
9.1201767707
 30
0.0
 10
39.8356975809
 20
9.0861249397
 30
0.0
 10
39.7886498854
 20
9.0469341391
 30
0.0
 10
39.73112358
 20
9.007706131
 30
0.0
 10
39.6637807117
 20
8.9686027266
 30
0.0
 10
39.5855621923
 20
8.9290374057
 30
0.0
 10
39.4606411531
 20
8.8735517252
 30
0.0
 10
39.285475178
 20
8.8103183175
 30
0.0
 10
39.1015684007
 20
8.7602082184
 30
0.0
 10
38.9543591976
 20
8.730437146
 30
0.0
 10
38.8530524006
 20
8.7147130656
 30
0.0
 10
38.7618668301
 20
8.7056089701
 30
0.0
 10
38.7047484188
 20
8.7033567316
 30
0.0
 10
38.6782733043
 20
8.7033485645
 30
0.0
  0
SPLINE
  5
277
100
AcDbEntity
  8
0
100
AcDbSpline
 62
7
  6
CONTINUOUS
 70
0
 71
3
 72
10
 73
6
 74
0
 42
0.0000001
 43
0.0000001
 44
0.0000000001
 40
0.0
 40
0.0
 40
0.0
 40
0.0
 40
0.2557625507
 40
0.507927219
 40
1.0
 40
1.0
 40
1.0
 40
1.0
 10
38.7416275988
 20
12.3201730608
 30
0.0
 10
38.8425205014
 20
12.0680975061
 30
0.0
 10
39.0354994215
 20
11.5644096606
 30
0.0
 10
39.3746728139
 20
10.5583787181
 30
0.0
 10
39.5681941718
 20
9.7895994646
 30
0.0
 10
39.6587595342
 20
9.2751266049
 30
0.0
  0
SPLINE
  5
278
100
AcDbEntity
  8
0
100
AcDbSpline
 62
7
  6
CONTINUOUS
 70
0
 71
3
 72
12
 73
8
 74
0
 42
0.0000001
 43
0.0000001
 44
0.0000000001
 40
0.0
 40
0.0
 40
0.0
 40
0.0
 40
0.3753959119
 40
0.5103752031
 40
0.6609636813
 40
0.8250350158
 40
1.0
 40
1.0
 40
1.0
 40
1.0
 10
37.4136829223
 20
22.1126158944
 30
0.0
 10
37.4048254495
 20
22.0824860274
 30
0.0
 10
37.3577731315
 20
22.0585365356
 30
0.0
 10
37.3053140406
 20
22.0460281714
 30
0.0
 10
37.2677934469
 20
22.0404455006
 30
0.0
 10
37.2270122417
 20
22.0373278971
 30
0.0
 10
37.1986229674
 20
22.0366857257
 30
0.0
 10
37.1839857642
 20
22.03668048
 30
0.0
  0
SPLINE
  5
279
100
AcDbEntity
  8
0
100
AcDbSpline
 62
7
  6
CONTINUOUS
 70
0
 71
3
 72
10
 73
6
 74
0
 42
0.0000001
 43
0.0000001
 44
0.0000000001
 40
0.0
 40
0.0
 40
0.0
 40
0.0
 40
0.2493119481
 40
0.6254917514
 40
1.0
 40
1.0
 40
1.0
 40
1.0
 10
38.6235603951
 20
25.367930545
 30
0.0
 10
38.5085858586
 20
25.0891131048
 30
0.0
 10
38.2104912222
 20
24.3935693116
 30
0.0
 10
37.7158741992
 20
23.289656612
 30
0.0
 10
37.3547011681
 20
22.456288427
 30
0.0
 10
37.1838878574
 20
22.03668048
 30
0.0
  0
SPLINE
  5
27A
100
AcDbEntity
  8
0
100
AcDbSpline
 62
7
  6
CONTINUOUS
 70
0
 71
3
 72
11
 73
7
 74
0
 42
0.0000001
 43
0.0000001
 44
0.0000000001
 40
0.0
 40
0.0
 40
0.0
 40
0.0
 40
0.2433256315
 40
0.4892856884
 40
0.7415408372
 40
1.0
 40
1.0
 40
1.0
 40
1.0
 10
36.0515628942
 20
44.0005695537
 30
0.0
 10
36.0415915628
 20
43.5825192022
 30
0.0
 10
36.0767509759
 20
42.7395444817
 30
0.0
 10
36.2920500067
 20
41.4805567145
 30
0.0
 10
36.6485455165
 20
40.2279885786
 30
0.0
 10
36.9551332051
 20
39.4048989337
 30
0.0
 10
37.1202028344
 20
38.9925334169
 30
0.0
  0
SPLINE
  5
27B
100
AcDbEntity
  8
0
100
AcDbSpline
 62
7
  6
CONTINUOUS
 70
0
 71
3
 72
23
 73
19
 74
0
 42
0.0000001
 43
0.0000001
 44
0.0000000001
 40
0.0
 40
0.0
 40
0.0
 40
0.0
 40
0.0580993834
 40
0.1253274645
 40
0.2009867432
 40
0.2829529876
 40
0.4547873956
 40
0.6187545309
 40
0.6911060406
 40
0.7547173816
 40
0.8111039067
 40
0.8619696589
 40
0.9074060955
 40
0.9453765631
 40
0.9613748618
 40
0.9755382055
 40
0.9882101989
 40
1.0
 40
1.0
 40
1.0
 40
1.0
 10
39.65875837
 20
35.941800777
 30
0.0
 10
39.6322950374
 20
35.9417913043
 30
0.0
 10
39.5752046134
 20
35.9395387955
 30
0.0
 10
39.4840664539
 20
35.9304398828
 30
0.0
 10
39.3828160776
 20
35.9147274005
 30
0.0
 10
39.2356864792
 20
35.8849789529
 30
0.0
 10
39.0518611717
 20
35.8349051156
 30
0.0
 10
38.876753822
 20
35.7717137584
 30
0.0
 10
38.7518485051
 20
35.7162586002
 30
0.0
 10
38.6736229005
 20
35.6767105615
 30
0.0
 10
38.6062682833
 20
35.6376244019
 30
0.0
 10
38.548720306
 20
35.5984167994
 30
0.0
 10
38.5016325791
 20
35.5592417037
 30
0.0
 10
38.4712343189
 20
35.5252045953
 30
0.0
 10
38.4553980856
 20
35.4983959123
 30
0.0
 10
38.4483144129
 20
35.4800936961
 30
0.0
 10
38.4455835263
 20
35.4625456702
 30
0.0
 10
38.4469794118
 20
35.4512950973
 30
0.0
 10
38.4484738566
 20
35.4461371685
 30
0.0
  0
SPLINE
  5
27C
100
AcDbEntity
  8
0
100
AcDbSpline
 62
7
  6
CONTINUOUS
 70
0
 71
3
 72
12
 73
8
 74
0
 42
0.0000001
 43
0.0000001
 44
0.0000000001
 40
0.0
 40
0.0
 40
0.0
 40
0.0
 40
0.1749464467
 40
0.3390054933
 40
0.4895885135
 40
0.6245690469
 40
1.0
 40
1.0
 40
1.0
 40
1.0
 10
39.6588085041
 20
9.2751266212
 30
0.0
 10
39.6734451186
 20
9.2751220977
 30
0.0
 10
39.7018336913
 20
9.2744815276
 30
0.0
 10
39.7426148197
 20
9.2713668352
 30
0.0
 10
39.7801368633
 20
9.2657881759
 30
0.0
 10
39.8326045011
 20
9.2532846203
 30
0.0
 10
39.8796636127
 20
9.2293542201
 30
0.0
 10
39.888544318
 20
9.1992259844
 30
0.0
  0
SPLINE
  5
27D
100
AcDbEntity
  8
0
100
AcDbSpline
 62
7
  6
CONTINUOUS
 70
0
 71
3
 72
10
 73
6
 74
0
 42
0.0000001
 43
0.0000001
 44
0.0000000001
 40
0.0
 40
0.0
 40
0.0
 40
0.0
 40
0.2558559264
 40
0.508110943
 40
1.0
 40
1.0
 40
1.0
 40
1.0
 10
38.7416277726
 20
38.9868444911
 30
0.0
 10
38.8425533119
 20
38.7346754672
 30
0.0
 10
39.0355871644
 20
38.2308004688
 30
0.0
 10
39.3747611807
 20
37.2247699759
 30
0.0
 10
39.5682230797
 20
36.4560804543
 30
0.0
 10
39.65875837
 20
35.941800777
 30
0.0
  0
SPLINE
  5
27E
100
AcDbEntity
  8
0
100
AcDbSpline
 62
7
  6
CONTINUOUS
 70
0
 71
3
 72
23
 73
19
 74
0
 42
0.0000001
 43
0.0000001
 44
0.0000000001
 40
0.0
 40
0.0
 40
0.0
 40
0.0
 40
0.0117857161
 40
0.0244423192
 40
0.0385844662
 40
0.054559701
 40
0.0924867843
 40
0.1378975597
 40
0.188751174
 40
0.2451246228
 40
0.3087182316
 40
0.3810599297
 40
0.5450498147
 40
0.7169436878
 40
0.7989433537
 40
0.8746331679
 40
0.9418850247
 40
1.0
 40
1.0
 40
1.0
 40
1.0
 10
38.4485436059
 20
8.7792285484
 30
0.0
 10
38.4470233424
 20
8.7843782308
 30
0.0
 10
38.4455730789
 20
8.7956163965
 30
0.0
 10
38.4482351221
 20
8.8131617128
 30
0.0
 10
38.4552599943
 20
8.8314631293
 30
0.0
 10
38.4710255673
 20
8.8582760131
 30
0.0
 10
38.501361753
 20
8.8923291338
 30
0.0
 10
38.5484054975
 20
8.9315213192
 30
0.0
 10
38.6059294374
 20
8.9707511373
 30
0.0
 10
38.6732707485
 20
9.0098560521
 30
0.0
 10
38.7514880175
 20
9.0494228829
 30
0.0
 10
38.8764095502
 20
9.1049112862
 30
0.0
 10
39.0515797677
 20
9.1681485903
 30
0.0
 10
39.2354930241
 20
9.2182622266
 30
0.0
 10
39.3827090371
 20
9.2480356666
 30
0.0
 10
39.4840209565
 20
9.2637611095
 30
0.0
 10
39.5752110436
 20
9.2728660099
 30
0.0
 10
39.6323322074
 20
9.2751184537
 30
0.0
 10
39.6588085272
 20
9.2751266212
 30
0.0
  0
SPLINE
  5
27F
100
AcDbEntity
  8
0
100
AcDbSpline
 62
7
  6
CONTINUOUS
 70
0
 71
3
 72
18
 73
14
 74
0
 42
0.0000001
 43
0.0000001
 44
0.0000000001
 40
0.0
 40
0.0
 40
0.0
 40
0.0
 40
0.1202849981
 40
0.180007334
 40
0.2397681842
 40
0.2998334124
 40
0.3604313003
 40
0.4217142888
 40
0.4837796662
 40
0.6102907307
 40
0.7394799135
 40
0.8699799998
 40
1.0
 40
1.0
 40
1.0
 40
1.0
 10
39.65875837
 20
35.941800777
 30
0.0
 10
39.7314747729
 20
35.5287658283
 30
0.0
 10
39.804271219
 20
34.903225019
 30
0.0
 10
39.8191038214
 20
34.0669302317
 30
0.0
 10
39.7892752626
 20
33.4411574826
 30
0.0
 10
39.719261172
 20
32.8155887158
 30
0.0
 10
39.6102700947
 20
32.1902786517
 30
0.0
 10
39.4652916806
 20
31.5652235913
 30
0.0
 10
39.2260518535
 20
30.7272362217
 30
0.0
 10
38.8535858177
 20
29.6826612179
 30
0.0
 10
38.3321399752
 20
28.4409172186
 30
0.0
 10
37.777294367
 20
27.200637201
 30
0.0
 10
37.4136968774
 20
26.3681214542
 30
0.0
 10
37.2407731695
 20
25.9490691581
 30
0.0
  0
SPLINE
  5
280
100
AcDbEntity
  8
0
100
AcDbSpline
 62
7
  6
CONTINUOUS
 70
0
 71
3
 72
23
 73
19
 74
0
 42
0.0000001
 43
0.0000001
 44
0.0000000001
 40
0.0
 40
0.0
 40
0.0
 40
0.0
 40
0.0581008221
 40
0.1253308168
 40
0.2009923645
 40
0.2829609604
 40
0.4547993849
 40
0.6187680833
 40
0.6911190492
 40
0.7547293312
 40
0.8111149839
 40
0.8619798091
 40
0.9074144281
 40
0.9453819124
 40
0.9613785582
 40
0.9755402928
 40
0.9882109446
 40
1.0
 40
1.0
 40
1.0
 40
1.0
 10
37.1838878574
 20
22.03668048
 30
0.0
 10
37.15742373
 20
22.0366899591
 30
0.0
 10
37.1003314792
 20
22.0389425058
 30
0.0
 10
37.0091902723
 20
22.0480415134
 30
0.0
 10
36.90793636
 20
22.0637541272
 30
0.0
 10
36.7608019613
 20
22.0935026696
 30
0.0
 10
36.576971833
 20
22.1435763426
 30
0.0
 10
36.4018608053
 20
22.2067671457
 30
0.0
 10
36.2769543122
 20
22.2622213904
 30
0.0
 10
36.1987289671
 20
22.3017684675
 30
0.0
 10
36.1313748243
 20
22.3408536774
 30
0.0
 10
36.0738278508
 20
22.3800605041
 30
0.0
 10
36.0267421749
 20
22.4192345174
 30
0.0
 10
35.9963468469
 20
22.4532707891
 30
0.0
 10
35.9805140407
 20
22.4800784291
 30
0.0
 10
35.9734332828
 20
22.4983796897
 30
0.0
 10
35.9707058328
 20
22.5159267263
 30
0.0
 10
35.9721044743
 20
22.5271761166
 30
0.0
 10
35.9736002237
 20
22.5323333431
 30
0.0
  0
SPLINE
  5
281
100
AcDbEntity
  8
0
100
AcDbSpline
 62
7
  6
CONTINUOUS
 70
0
 71
3
 72
17
 73
13
 74
0
 42
0.0000001
 43
0.0000001
 44
0.0000000001
 40
0.0
 40
0.0
 40
0.0
 40
0.0
 40
0.1292906621
 40
0.2556734703
 40
0.3176867678
 40
0.3789636677
 40
0.4397641304
 40
0.5003964608
 40
0.6218355687
 40
0.7447347749
 40
0.8708115796
 40
1.0
 40
1.0
 40
1.0
 40
1.0
 10
37.1838878574
 20
22.03668048
 30
0.0
 10
37.0210706116
 20
21.636718476
 30
0.0
 10
36.7156909844
 20
20.8387330576
 30
0.0
 10
36.4094872545
 20
19.8212355275
 30
0.0
 10
36.2291764962
 20
19.0066789661
 30
0.0
 10
36.1297831734
 20
18.3995568244
 30
0.0
 10
36.0670589379
 20
17.7921331766
 30
0.0
 10
36.0346306843
 20
16.9811353815
 30
0.0
 10
36.0910474375
 20
15.9611273988
 30
0.0
 10
36.3106042183
 20
14.7408893028
 30
0.0
 10
36.6614648735
 20
13.5257711799
 30
0.0
 10
36.9598503739
 20
12.7264725944
 30
0.0
 10
37.120204263
 20
12.3258844325
 30
0.0
  0
SPLINE
  5
282
100
AcDbEntity
  8
0
100
AcDbSpline
 62
7
  6
CONTINUOUS
 70
0
 71
3
 72
12
 73
8
 74
0
 42
0.0000001
 43
0.0000001
 44
0.0000000001
 40
0.0
 40
0.0
 40
0.0
 40
0.0
 40
0.3753778777
 40
0.5103571472
 40
0.6609489012
 40
0.825026488
 40
1.0
 40
1.0
 40
1.0
 40
1.0
 10
39.8885606514
 20
35.8658406469
 30
0.0
 10
39.8797155183
 20
35.8959753733
 30
0.0
 10
39.8326602621
 20
35.9199385442
 30
0.0
 10
39.7801990896
 20
35.9324498527
 30
0.0
 10
39.7426745416
 20
35.938034572
 30
0.0
 10
39.7018884063
 20
35.9411531352
 30
0.0
 10
39.6734954488
 20
35.9417955268
 30
0.0
 10
39.6588562768
 20
35.941800777
 30
0.0
  0
ENDSEC
  0
SECTION
  2
OBJECTS
  0
DICTIONARY
  5
C
100
AcDbDictionary
280
0
281
1
  3
ACAD_GROUP
350
D
  3
ACAD_MLINESTYLE
350
17
  3
ACAD_LAYOUT
350
1A
  3
ACAD_PLOTSETTINGS
350
19
  3
ACAD_PLOTSTYLENAME
350
E
  0
DICTIONARY
  5
D
102
{ACAD_REACTORS
330
C
102
}
100
AcDbDictionary
280
0
281
1
  0
ACDBDICTIONARYWDFLT
  5
E
102
{ACAD_REACTORS
330
C
102
}
100
AcDbDictionary
281
1
  3
Normal
350
F
100
AcDbDictionaryWithDefault
340
F
  0
DICTIONARY
  5
17
102
{ACAD_REACTORS
330
C
102
}
100
AcDbDictionary
280
0
281
1
  3
Standard
350
18
  0
DICTIONARY
  5
19
102
{ACAD_REACTORS
330
C
102
}
100
AcDbDictionary
281
1
  0
DICTIONARY
  5
1A
102
{ACAD_REACTORS
330
C
102
}
100
AcDbDictionary
281
1
  3
Model
350
283
  3
Layout1
350
284
  0
ACDBPLACEHOLDER
  5
F
102
{ACAD_REACTORS
330
E
102
}
  0
MLINESTYLE
  5
18
102
{ACAD_REACTORS
330
17
102
}
100
AcDbMlineStyle
  2
STANDARD
 70
0
  3

 62
256
 51
90.0
 52
90.0
 71
2
 49
0.5
 62
256
  6
BYLAYER
 49
-0.5
 62
256
  6
BYLAYER
  0
LAYOUT
  5
283
102
{ACAD_REACTORS
330
1A
102
}
100
AcDbPlotSettings
  1

  2
none_device
  4

  6

 40
0.0
 41
0.0
 42
0.0
 43
0.0
 44
210.0
 45
297.0
 46
0.0
 47
0.0
 48
0.0
 49
0.0
140
0.0
141
0.0
142
1.0
143
1.0
 70
1024
 72
1
 73
0
 74
0
  7

 75
0
147
1.0
148
0.0
149
0.0
100
AcDbLayout
  1
Model
 70
0
 71
0
 10
0.0
 20
0.0
 11
210.0
 21
297.0
 12
0.0
 22
0.0
 32
0.0
 14
0.0
 24
0.0
 34
0.0
 15
0.0
 25
0.0
 35
0.0
146
0.0
 13
0.0
 23
0.0
 33
0.0
 16
1.0
 26
0.0
 36
0.0
 17
0.0
 27
1.0
 37
0.0
 76
0
330
210
345
0
346
0
  0
LAYOUT
  5
284
102
{ACAD_REACTORS
330
1A
102
}
100
AcDbPlotSettings
  1

  2
none_device
  4

  6

 40
0.0
 41
0.0
 42
0.0
 43
0.0
 44
210.0
 45
297.0
 46
0.0
 47
0.0
 48
0.0
 49
0.0
140
0.0
141
0.0
142
1.0
143
1.0
 70
0
 72
1
 73
0
 74
0
  7

 75
0
147
1.0
148
0.0
149
0.0
100
AcDbLayout
  1
Layout1
 70
0
 71
1
 10
0.0
 20
0.0
 11
210.0
 21
297.0
 12
0.0
 22
0.0
 32
0.0
 14
0.0
 24
0.0
 34
0.0
 15
0.0
 25
0.0
 35
0.0
146
0.0
 13
0.0
 23
0.0
 33
0.0
 16
1.0
 26
0.0
 36
0.0
 17
0.0
 27
1.0
 37
0.0
 76
0
330
211
345
0
346
0
  0
ENDSEC
  0
EOF
