999
DXF file: C:\Users\sesa63760\Dev\_Creo\CAD\MCADID0000285_3D-CAD\drw0001_1.dxf
999
Pro/ENGINEER 2019471 by Parametric Technology Corporation
  0
SECTION
  2
HEADER
  9
$ACADVER
  1
AC1024
  9
$DWGCODEPAGE
  3
ANSI_1252
  9
$EXTMAX
 10
166.5761745693
 20
235.5863040337
 30
0.0
  9
$EXTMIN
 10
0.0
 20
0.0
 30
0.0
  9
$LIMMIN
 10
0.0
 20
0.0
  9
$LIMMAX
 10
166.5761745693
 20
235.5863040337
  9
$VIEWCTR
 10
83.2880872846
 20
117.7931520169
  9
$VIEWSIZE
 40
235.5863040337
  9
$CLAYER
  8
0
  9
$LTSCALE
 40
15.3567368555
  9
$CELTYPE
  6
BYLAYER
  9
$DIMSCALE
 40
1.0
  9
$DIMASZ
 40
1.9830496973
  9
$DIMEXO
 40
1.0
  9
$DIMDLI
 40
10.6101091002
  9
$DIMEXE
 40
1.0
  9
$DIMCEN
 40
2.5129205764
  9
$DIMLFAC
 40
1.0
  9
$DIMBLK
  1
_FILLED
  9
$DIMALT
 70
0
  9
$DIMALTF
 40
0.0393700787
  9
$DIMTXT
 40
2.7762695762
  9
$DIMTOL
 70
1
  9
$DIMLIM
 70
0
  9
$DIMTFAC
 40
1.0
  9
$DIMTP
 40
0.01
  9
$DIMTM
 40
0.01
  9
$DIMGAP
 40
0.625
  9
$DIMDSEP
 70
46
  9
$AUNITS
 70
0
  9
$PDMODE
 70
3
  9
$PDSIZE
 40
0.3125
  9
$HANDSEED
  5
3C4
  9
$TILEMODE
 70
1
  9
$MEASUREMENT
 70
1
  9
$INSUNITS
 70
4
  0
ENDSEC
  0
SECTION
  2
CLASSES
  0
CLASS
  1
ACDBDICTIONARYWDFLT
  2
AcDbDictionaryWithDefault
  3
AutoCAD 2000
 90
0
 91
1
280
0
281
0
  0
CLASS
  1
ACDBPLACEHOLDER
  2
AcDbPlaceHolder
  3
AutoCAD 2000
 90
0
 91
1
280
0
281
0
  0
CLASS
  1
LAYOUT
  2
AcDbLayout
  3
AutoCAD 2000
 90
0
 91
0
280
0
281
0
  0
ENDSEC
  0
SECTION
  2
TABLES
  0
TABLE
  2
VPORT
  5
8
100
AcDbSymbolTable
 70
2
  0
VPORT
  5
1F4
100
AcDbSymbolTableRecord
100
AcDbViewportTableRecord
  2
*ACTIVE
 70
0
 10
0.0
 20
0.0
 11
1.0
 21
1.0
 12
83.2880872846
 22
117.7931520169
 13
0.0
 23
0.0
 14
1.0
 24
1.0
 15
0.0
 25
0.0
 16
0.0
 26
0.0
 36
1.0
 17
0.0
 27
0.0
 37
0.0
 40
235.5863040337
 41
0.7070707071
 42
50.0
 43
0.0
 44
0.0
 50
0.0
 51
0.0
 71
0
 72
100
 73
1
 74
1
 75
0
 76
0
 77
0
 78
0
  0
ENDTAB
  0
TABLE
  2
LTYPE
  5
5
100
AcDbSymbolTable
 70
6
  0
LTYPE
  5
14
100
AcDbSymbolTableRecord
100
AcDbLinetypeTableRecord
  2
BYBLOCK
 70
0
  3

 72
65
 73
0
 40
0.0
  0
LTYPE
  5
15
100
AcDbSymbolTableRecord
100
AcDbLinetypeTableRecord
  2
BYLAYER
 70
0
  3

 72
65
 73
0
 40
0.0
  0
LTYPE
  5
16
100
AcDbSymbolTableRecord
100
AcDbLinetypeTableRecord
  2
CONTINUOUS
 70
64
  3
Solid line
 72
65
 73
0
 40
0.0
  0
LTYPE
  5
1F5
100
AcDbSymbolTableRecord
100
AcDbLinetypeTableRecord
  2
CENTER
 70
64
  3
____ _ ____ _ ____ _ ____ _ ____ _ ____ _ ____
 72
65
 73
4
 40
0.6
 49
0.375
 74
0
 49
-0.075
 74
0
 49
0.075
 74
0
 49
-0.075
 74
0
  0
LTYPE
  5
1F6
100
AcDbSymbolTableRecord
100
AcDbLinetypeTableRecord
  2
HIDDEN
 70
64
  3
- - - - - - - - - - - - - - - - - - - -
 72
65
 73
2
 40
0.2
 49
0.1
 74
0
 49
-0.1
 74
0
  0
LTYPE
  5
1F7
100
AcDbSymbolTableRecord
100
AcDbLinetypeTableRecord
  2
PHANTOM
 70
64
  3
_____ _ _ _____ _ _ _____ _ _ _____
 72
65
 73
6
 40
0.8
 49
0.45
 74
0
 49
-0.05
 74
0
 49
0.1
 74
0
 49
-0.05
 74
0
 49
0.1
 74
0
 49
-0.05
 74
0
  0
LTYPE
  5
1F8
100
AcDbSymbolTableRecord
100
AcDbLinetypeTableRecord
  2
DOT
 70
64
  3
. . . . . . . . . . . . . . . . . . . .
 72
65
 73
2
 40
0.2
 49
0.1
 74
0
 49
-0.1
 74
0
  0
LTYPE
  5
1F9
100
AcDbSymbolTableRecord
100
AcDbLinetypeTableRecord
  2
DASHED
 70
64
  3
- - - - - - - - - - - - - - - - - - - -
 72
65
 73
2
 40
0.2
 49
0.1
 74
0
 49
-0.1
 74
0
  0
ENDTAB
  0
TABLE
  2
LAYER
  5
2
100
AcDbSymbolTable
 70
36
  0
LAYER
  5
10
100
AcDbSymbolTableRecord
100
AcDbLayerTableRecord
  2
0
 70
0
 62
7
  6
CONTINUOUS
370
-3
390
F
  0
LAYER
  5
1FA
100
AcDbSymbolTableRecord
100
AcDbLayerTableRecord
  2
DEFAULT_1
 70
0
 62
7
  6
CENTER
370
-3
390
F
  0
LAYER
  5
1FB
100
AcDbSymbolTableRecord
100
AcDbLayerTableRecord
  2
DEFAULT_2
 70
0
 62
8
  6
HIDDEN
370
-3
390
F
  0
LAYER
  5
1FC
100
AcDbSymbolTableRecord
100
AcDbLayerTableRecord
  2
DEFAULT_3
 70
0
 62
7
  6
PHANTOM
370
-3
390
F
  0
LAYER
  5
1FD
100
AcDbSymbolTableRecord
100
AcDbLayerTableRecord
  2
00_COMPONENTS
 70
0
 62
7
  6
CONTINUOUS
370
-3
390
F
  0
LAYER
  5
1FE
100
AcDbSymbolTableRecord
100
AcDbLayerTableRecord
  2
01_1_DEFAULT_DATUMS
 70
0
 62
7
  6
CONTINUOUS
370
-3
390
F
  0
LAYER
  5
1FF
100
AcDbSymbolTableRecord
100
AcDbLayerTableRecord
  2
01_PLANES
 70
0
 62
7
  6
CONTINUOUS
370
-3
390
F
  0
LAYER
  5
200
100
AcDbSymbolTableRecord
100
AcDbLayerTableRecord
  2
02_COORD_SYS
 70
0
 62
7
  6
CONTINUOUS
370
-3
390
F
  0
LAYER
  5
201
100
AcDbSymbolTableRecord
100
AcDbLayerTableRecord
  2
03_AXES
 70
0
 62
7
  6
CONTINUOUS
370
-3
390
F
  0
LAYER
  5
202
100
AcDbSymbolTableRecord
100
AcDbLayerTableRecord
  2
04_POINTS
 70
0
 62
7
  6
CONTINUOUS
370
-3
390
F
  0
LAYER
  5
203
100
AcDbSymbolTableRecord
100
AcDbLayerTableRecord
  2
05_CURVES
 70
0
 62
7
  6
CONTINUOUS
370
-3
390
F
  0
LAYER
  5
204
100
AcDbSymbolTableRecord
100
AcDbLayerTableRecord
  2
06_SURFS
 70
0
 62
7
  6
CONTINUOUS
370
-3
390
F
  0
LAYER
  5
205
100
AcDbSymbolTableRecord
100
AcDbLayerTableRecord
  2
07_COSMETICS
 70
0
 62
7
  6
CONTINUOUS
370
-3
390
F
  0
LAYER
  5
206
100
AcDbSymbolTableRecord
100
AcDbLayerTableRecord
  2
10_NOTES
 70
0
 62
7
  6
CONTINUOUS
370
-3
390
F
  0
LAYER
  5
207
100
AcDbSymbolTableRecord
100
AcDbLayerTableRecord
  2
11_NOTES_PUB
 70
0
 62
7
  6
CONTINUOUS
370
-3
390
F
  0
LAYER
  5
208
100
AcDbSymbolTableRecord
100
AcDbLayerTableRecord
  2
13_REF_GTOL
 70
0
 62
7
  6
CONTINUOUS
370
-3
390
F
  0
LAYER
  5
209
100
AcDbSymbolTableRecord
100
AcDbLayerTableRecord
  2
16_MISC
 70
0
 62
7
  6
CONTINUOUS
370
-3
390
F
  0
LAYER
  5
20A
100
AcDbSymbolTableRecord
100
AcDbLayerTableRecord
  2
17_NO_PRINT
 70
0
 62
7
  6
CONTINUOUS
370
-3
390
F
  0
LAYER
  5
20B
100
AcDbSymbolTableRecord
100
AcDbLayerTableRecord
  2
18_DATUM_CAMS_JOINTS
 70
0
 62
7
  6
CONTINUOUS
370
-3
390
F
  0
LAYER
  5
20C
100
AcDbSymbolTableRecord
100
AcDbLayerTableRecord
  2
19_DATUM_FUNCTIONAL
 70
0
 62
7
  6
CONTINUOUS
370
-3
390
F
  0
LAYER
  5
20D
100
AcDbSymbolTableRecord
100
AcDbLayerTableRecord
  2
20_DATUM_KINEMATIC_SCHEME
 70
0
 62
7
  6
CONTINUOUS
370
-3
390
F
  0
ENDTAB
  0
TABLE
  2
STYLE
  5
3
100
AcDbSymbolTable
 70
1
  0
STYLE
  5
11
100
AcDbSymbolTableRecord
100
AcDbTextStyleTableRecord
  2
STANDARD
 70
0
 40
0.0
 41
0.8
 50
0.0
 71
0
 42
0.2
  3
txt
  4

  0
STYLE
  5
20E
100
AcDbSymbolTableRecord
100
AcDbTextStyleTableRecord
  2
TEXTSTYLE_1
 70
0
 40
0.0
 41
0.8
 50
0.0
 71
0
 42
0.2
  3
gdt
  4

  0
ENDTAB
  0
TABLE
  2
VIEW
  5
6
100
AcDbSymbolTable
 70
0
  0
ENDTAB
  0
TABLE
  2
UCS
  5
7
100
AcDbSymbolTable
 70
0
  0
ENDTAB
  0
TABLE
  2
APPID
  5
9
100
AcDbSymbolTable
 70
1
  0
APPID
  5
20F
100
AcDbSymbolTableRecord
100
AcDbRegAppTableRecord
  2
ACAD
 70
0
  0
ENDTAB
  0
TABLE
  2
BLOCK_RECORD
  5
1
100
AcDbSymbolTable
 70
0
  0
BLOCK_RECORD
  5
210
100
AcDbSymbolTableRecord
100
AcDbBlockTableRecord
  2
*Model_Space
  0
BLOCK_RECORD
  5
211
100
AcDbSymbolTableRecord
100
AcDbBlockTableRecord
  2
*Paper_Space
  0
BLOCK_RECORD
  5
212
100
AcDbSymbolTableRecord
100
AcDbBlockTableRecord
  2
_FILLED
  0
ENDTAB
  0
TABLE
  2
DIMSTYLE
  5
A
100
AcDbSymbolTable
 70
1
100
AcDbDimStyleTable
 71
0
  0
DIMSTYLE
105
213
100
AcDbSymbolTableRecord
100
AcDbDimStyleTableRecord
  2
STANDARD
 70
0
  3

  4

 40
1.0
 41
1.9830496973
 42
1.0
 43
0.38
 44
1.0
 45
0.0
 46
0.0
 47
0.01
 48
0.01
140
2.7762695762
141
0.09
142
0.0
143
25.4
144
1.0
145
0.0
146
1.0
147
0.625
 71
1
 72
0
 73
0
 74
0
 75
0
 76
0
 77
1
 78
8
 79
2
170
0
171
1
172
0
173
0
174
0
175
0
176
0
177
0
178
0
270
2
179
2
271
2
272
2
273
2
274
2
275
0
280
0
281
0
282
0
283
1
284
8
285
0
286
0
287
3
288
0
340
11
278
46
341
212
342
212
343
212
344
212
  0
ENDTAB
  0
ENDSEC
  0
SECTION
  2
BLOCKS
  0
BLOCK
  5
20
100
AcDbEntity
  8
0
100
AcDbBlockBegin
  2
*Model_Space
 70
0
 10
0.0
 20
0.0
 30
0.0
  3
*Model_Space
  1

  0
ENDBLK
  5
21
100
AcDbEntity
  8
0
100
AcDbBlockEnd
  0
BLOCK
  5
1C
100
AcDbEntity
  8
0
100
AcDbBlockBegin
  2
*Paper_Space
 70
0
 10
0.0
 20
0.0
 30
0.0
  3
*Paper_Space
  1

  0
ENDBLK
  5
1D
100
AcDbEntity
  8
0
100
AcDbBlockEnd
  0
BLOCK
  5
214
100
AcDbEntity
  8
0
100
AcDbBlockBegin
  2
_FILLED
 70
64
 10
0.0
 20
0.0
  3
_FILLED
  1

  0
SOLID
  5
215
100
AcDbEntity
  8
0
  6
BYBLOCK
 62
0
100
AcDbTrace
 10
0.0
 20
0.0
 11
-1.0
 21
0.25
 12
-1.0
 22
-0.25
 13
-1.0
 23
-0.25
  0
ENDBLK
  5
216
100
AcDbEntity
  8
0
  6
BYBLOCK
 62
0
100
AcDbBlockEnd
  0
ENDSEC
  0
SECTION
  2
ENTITIES
  0
LINE
  5
217
100
AcDbEntity
  8
0
100
AcDbLine
 62
7
  6
CONTINUOUS
 10
31.353250407
 20
167.7696736313
 11
29.7416703125
 21
166.839232984
  0
LINE
  5
218
100
AcDbEntity
  8
0
100
AcDbLine
 62
7
  6
CONTINUOUS
 10
19.3772823088
 20
125.6292927362
 11
19.3772823088
 21
148.0831092072
  0
LINE
  5
219
100
AcDbEntity
  8
0
100
AcDbLine
 62
7
  6
CONTINUOUS
 10
30.1659626433
 20
162.9201064435
 11
29.7417003409
 21
162.6751599512
  0
LINE
  5
21A
100
AcDbEntity
  8
0
100
AcDbLine
 62
7
  6
CONTINUOUS
 10
21.5445498801
 20
112.8943628479
 11
19.815363282
 21
121.1429141133
  0
LINE
  5
21B
100
AcDbEntity
  8
0
100
AcDbLine
 62
7
  6
CONTINUOUS
 10
24.3270503849
 20
145.2254239256
 11
24.3270503849
 21
122.7716074545
  0
LINE
  5
21C
100
AcDbEntity
  8
0
100
AcDbLine
 62
7
  6
CONTINUOUS
 10
25.8826847147
 20
149.0629872745
 11
25.8826906026
 21
144.4905912473
  0
LINE
  5
21D
100
AcDbEntity
  8
0
100
AcDbLine
 62
7
  6
CONTINUOUS
 10
26.6025361396
 20
150.5327075183
 11
26.6025361396
 21
148.6547519589
  0
LINE
  5
21E
100
AcDbEntity
  8
0
100
AcDbLine
 62
7
  6
CONTINUOUS
 10
28.2372757253
 20
155.6478631804
 11
28.2372757253
 21
153.1983982571
  0
LINE
  5
21F
100
AcDbEntity
  8
0
100
AcDbLine
 62
7
  6
CONTINUOUS
 10
28.2372757253
 20
155.6478631804
 11
29.1976849707
 21
156.2023524069
  0
LINE
  5
220
100
AcDbEntity
  8
0
100
AcDbLine
 62
7
  6
CONTINUOUS
 10
19.3772823088
 20
148.0831092072
 11
29.2999514461
 21
153.8119307083
  0
LINE
  5
221
100
AcDbEntity
  8
0
100
AcDbLine
 62
7
  6
CONTINUOUS
 10
26.6025361396
 20
149.4785912076
 11
25.8826847147
 21
149.0629872745
  0
LINE
  5
222
100
AcDbEntity
  8
0
100
AcDbLine
 62
7
  6
CONTINUOUS
 10
21.6401808575
 20
112.747109333
 11
21.5445498801
 21
112.8943628479
  0
LINE
  5
223
100
AcDbEntity
  8
0
100
AcDbLine
 62
7
  6
CONTINUOUS
 10
24.765131358
 20
118.2852288317
 11
26.4943179562
 21
110.0366775663
  0
LINE
  5
224
100
AcDbEntity
  8
0
100
AcDbLine
 62
7
  6
CONTINUOUS
 10
29.6108773973
 20
146.5442104014
 11
28.9685311488
 21
161.5586949016
  0
LINE
  5
225
100
AcDbEntity
  8
0
100
AcDbLine
 62
7
  6
CONTINUOUS
 10
29.1276096994
 20
162.0036938378
 11
28.9685011203
 21
165.7227679344
  0
LINE
  5
226
100
AcDbEntity
  8
0
100
AcDbLine
 62
7
  6
CONTINUOUS
 10
30.196059926
 20
145.7562337635
 11
29.7417159
 21
160.5175641588
  0
LINE
  5
227
100
AcDbEntity
  8
0
100
AcDbLine
 62
7
  6
CONTINUOUS
 10
29.8023658713
 20
162.7101850024
 11
29.7416858716
 21
164.6816371916
  0
LINE
  5
228
100
AcDbEntity
  8
0
100
AcDbLine
 62
7
  6
CONTINUOUS
 10
30.1659517067
 20
164.4366927389
 11
30.2116128365
 21
162.953193484
  0
LINE
  5
229
100
AcDbEntity
  8
0
100
AcDbLine
 62
7
  6
CONTINUOUS
 10
31.103250407
 20
165.311434922
 11
31.103250407
 21
163.6784300877
  0
LINE
  5
22A
100
AcDbEntity
  8
0
100
AcDbLine
 62
7
  6
CONTINUOUS
 10
31.353250407
 20
173.8847103018
 11
31.353250407
 21
165.311434922
  0
LINE
  5
22B
100
AcDbEntity
  8
0
100
AcDbLine
 62
7
  6
CONTINUOUS
 10
31.853250407
 20
177.1507199703
 11
31.853250407
 21
173.8847103018
  0
LINE
  5
22C
100
AcDbEntity
  8
0
100
AcDbLine
 62
7
  6
CONTINUOUS
 10
41.1156198915
 20
156.1085729929
 11
41.5398821938
 21
156.3535194853
  0
LINE
  5
22D
100
AcDbEntity
  8
0
100
AcDbLine
 62
7
  6
CONTINUOUS
 10
55.5405381707
 20
164.4367537319
 11
55.964800473
 21
164.6817002242
  0
LINE
  5
22E
100
AcDbEntity
  8
0
100
AcDbLine
 62
7
  6
CONTINUOUS
 10
25.8826906026
 20
146.1235678628
 11
24.3270503849
 21
145.2254239256
  0
LINE
  5
22F
100
AcDbEntity
  8
0
100
AcDbLine
 62
7
  6
CONTINUOUS
 10
48.3281090595
 20
156.1085903296
 11
55.9648305015
 21
160.5176271914
  0
LINE
  5
230
100
AcDbEntity
  8
0
100
AcDbLine
 62
7
  6
CONTINUOUS
 10
26.4943179562
 20
110.0366775663
 11
26.5899489336
 21
109.8894240514
  0
LINE
  5
231
100
AcDbEntity
  8
0
100
AcDbLine
 62
7
  6
CONTINUOUS
 10
37.3785009316
 20
156.10856401
 11
37.8328449576
 21
141.3472336147
  0
LINE
  5
232
100
AcDbEntity
  8
0
100
AcDbLine
 62
7
  6
CONTINUOUS
 10
36.6899586757
 20
174.781848856
 11
36.6899586757
 21
173.1814139064
  0
LINE
  5
233
100
AcDbEntity
  8
0
100
AcDbLine
 62
7
  6
CONTINUOUS
 10
37.2728919213
 20
177.7689409611
 11
37.2728919213
 21
175.0523432292
  0
LINE
  5
234
100
AcDbEntity
  8
0
100
AcDbLine
 62
7
  6
CONTINUOUS
 10
37.6899586757
 20
174.781848856
 11
37.6899586757
 21
172.7960687492
  0
LINE
  5
235
100
AcDbEntity
  8
0
100
AcDbLine
 62
7
  6
CONTINUOUS
 10
38.2728919213
 20
177.7689409611
 11
38.2728919213
 21
172.8699264583
  0
LINE
  5
236
100
AcDbEntity
  8
0
100
AcDbLine
 62
7
  6
CONTINUOUS
 10
39.0228919213
 20
172.8699264583
 11
39.0228919213
 21
172.3353243577
  0
LINE
  5
237
100
AcDbEntity
  8
0
100
AcDbLine
 62
7
  6
CONTINUOUS
 10
40.3715996138
 20
172.6563005556
 11
40.3715996138
 21
172.0701524288
  0
LINE
  5
238
100
AcDbEntity
  8
0
100
AcDbLine
 62
7
  6
CONTINUOUS
 10
40.6033086975
 20
142.4495405788
 11
40.6033086975
 21
140.5715850194
  0
LINE
  5
239
100
AcDbEntity
  8
0
100
AcDbLine
 62
7
  6
CONTINUOUS
 10
40.931438727
 20
179.3682355901
 11
40.931438727
 21
172.9289926335
  0
LINE
  5
23A
100
AcDbEntity
  8
0
100
AcDbLine
 62
7
  6
CONTINUOUS
 10
41.3715996138
 20
172.6563005556
 11
41.3715996138
 21
171.9483527634
  0
LINE
  5
23B
100
AcDbEntity
  8
0
100
AcDbLine
 62
7
  6
CONTINUOUS
 10
41.603250407
 20
175.9259663446
 11
41.603250407
 21
171.9201377743
  0
LINE
  5
23C
100
AcDbEntity
  8
0
100
AcDbLine
 62
7
  6
CONTINUOUS
 10
40.7048900582
 20
142.7643473877
 11
41.1156198915
 21
156.1085729929
  0
LINE
  5
23D
100
AcDbEntity
  8
0
100
AcDbLine
 62
7
  6
CONTINUOUS
 10
41.5398821938
 20
156.3535194853
 11
41.1384935186
 21
143.3127793107
  0
LINE
  5
23E
100
AcDbEntity
  8
0
100
AcDbLine
 62
7
  6
CONTINUOUS
 10
111.983553319
 20
52.1018799013
 11
105.6195657927
 21
55.776046692
  0
LINE
  5
23F
100
AcDbEntity
  8
0
100
AcDbLine
 62
7
  6
CONTINUOUS
 10
45.5862805351
 20
99.0141771943
 11
45.6819115125
 21
98.8669236793
  0
LINE
  5
240
100
AcDbEntity
  8
0
100
AcDbLine
 62
7
  6
CONTINUOUS
 10
44.5687501714
 20
143.2919757434
 11
44.1667242646
 21
156.3535257994
  0
LINE
  5
241
100
AcDbEntity
  8
0
100
AcDbLine
 62
7
  6
CONTINUOUS
 10
44.5909900997
 20
156.1085813467
 11
45.0031407344
 21
142.7180857217
  0
LINE
  5
242
100
AcDbEntity
  8
0
100
AcDbLine
 62
7
  6
CONTINUOUS
 10
42.146214281
 20
138.8569650121
 11
42.146214281
 21
135.1010538933
  0
LINE
  5
243
100
AcDbEntity
  8
0
100
AcDbLine
 62
7
  6
CONTINUOUS
 10
43.4190129638
 20
134.2029235535
 11
43.4190129638
 21
111.7491070825
  0
LINE
  5
244
100
AcDbEntity
  8
0
100
AcDbLine
 62
7
  6
CONTINUOUS
 10
43.431438727
 20
179.3682355901
 11
43.431438727
 21
176.5385511248
  0
LINE
  5
245
100
AcDbEntity
  8
0
100
AcDbLine
 62
7
  6
CONTINUOUS
 10
43.5604278433
 20
138.8569684115
 11
43.5604278433
 21
135.1010572927
  0
LINE
  5
246
100
AcDbEntity
  8
0
100
AcDbLine
 62
7
  6
CONTINUOUS
 10
44.103250407
 20
175.9259663446
 11
44.103250407
 21
171.9325157099
  0
LINE
  5
247
100
AcDbEntity
  8
0
100
AcDbLine
 62
7
  6
CONTINUOUS
 10
45.1033086975
 20
142.4495405788
 11
45.1033086975
 21
140.5715850194
  0
LINE
  5
248
100
AcDbEntity
  8
0
100
AcDbLine
 62
7
  6
CONTINUOUS
 10
45.5454640175
 20
172.9928772834
 11
45.5454640175
 21
172.0472687298
  0
LINE
  5
249
100
AcDbEntity
  8
0
100
AcDbLine
 62
7
  6
CONTINUOUS
 10
45.8458734302
 20
178.3754312679
 11
45.8458734302
 21
173.2418499344
  0
LINE
  5
24A
100
AcDbEntity
  8
0
100
AcDbLine
 62
7
  6
CONTINUOUS
 10
46.5454640175
 20
172.9928772834
 11
46.5454640175
 21
172.3295681321
  0
LINE
  5
24B
100
AcDbEntity
  8
0
100
AcDbLine
 62
7
  6
CONTINUOUS
 10
47.5655264632
 20
175.5381298984
 11
47.5655264632
 21
172.6175311508
  0
LINE
  5
24C
100
AcDbEntity
  8
0
100
AcDbLine
 62
7
  6
CONTINUOUS
 10
47.8737612503
 20
141.3472577501
 11
48.3281090595
 21
156.1085903296
  0
LINE
  5
24D
100
AcDbEntity
  8
0
100
AcDbLine
 62
7
  6
CONTINUOUS
 10
43.857093937
 20
116.7413350213
 11
45.5862805351
 21
126.986567064
  0
LINE
  5
24E
100
AcDbEntity
  8
0
100
AcDbLine
 62
7
  6
CONTINUOUS
 10
43.5604278433
 20
138.8569684115
 11
59.8238160993
 21
148.2465839505
  0
LINE
  5
24F
100
AcDbEntity
  8
0
100
AcDbLine
 62
7
  6
CONTINUOUS
 10
64.4907014249
 20
149.6345914987
 11
80.7540896808
 21
159.0242070377
  0
LINE
  5
250
100
AcDbEntity
  8
0
100
AcDbLine
 62
7
  6
CONTINUOUS
 10
110.9479917154
 20
54.3908106404
 11
104.584004189
 21
58.064977431
  0
LINE
  5
251
100
AcDbEntity
  8
0
100
AcDbLine
 62
7
  6
CONTINUOUS
 10
43.857093937
 20
107.2627284597
 11
45.5862805351
 21
99.0141771943
  0
LINE
  5
252
100
AcDbEntity
  8
0
100
AcDbLine
 62
7
  6
CONTINUOUS
 10
48.3458734302
 20
178.3754312679
 11
48.3458734302
 21
176.18577116
  0
LINE
  5
253
100
AcDbEntity
  8
0
100
AcDbLine
 62
7
  6
CONTINUOUS
 10
50.0655264632
 20
175.5381298984
 11
50.0655264632
 21
173.8326426734
  0
LINE
  5
254
100
AcDbEntity
  8
0
100
AcDbLine
 62
7
  6
CONTINUOUS
 10
50.4731772876
 20
134.0084699172
 11
50.4731772876
 21
135.4932131997
  0
LINE
  5
255
100
AcDbEntity
  8
0
100
AcDbLine
 62
7
  6
CONTINUOUS
 10
53.853250407
 20
177.1507199703
 11
53.853250407
 21
173.8847103018
  0
LINE
  5
256
100
AcDbEntity
  8
0
100
AcDbLine
 62
7
  6
CONTINUOUS
 10
54.353250407
 20
173.8847103018
 11
54.353250407
 21
165.311434922
  0
LINE
  5
257
100
AcDbEntity
  8
0
100
AcDbLine
 62
7
  6
CONTINUOUS
 10
55.4948771358
 20
162.9532696961
 11
55.5405381707
 21
164.4367537319
  0
LINE
  5
258
100
AcDbEntity
  8
0
100
AcDbLine
 62
7
  6
CONTINUOUS
 10
80.7540896808
 20
156.5746997863
 11
64.4907014249
 21
147.1850842473
  0
LINE
  5
259
100
AcDbEntity
  8
0
100
AcDbLine
 62
7
  6
CONTINUOUS
 10
59.8238160993
 20
144.4906728317
 11
43.5604278433
 21
135.1010572927
  0
LINE
  5
25A
100
AcDbEntity
  8
0
100
AcDbLine
 62
7
  6
CONTINUOUS
 10
82.3097240106
 20
156.6563520165
 11
43.4190129638
 21
134.2029235535
  0
LINE
  5
25B
100
AcDbEntity
  8
0
100
AcDbLine
 62
7
  6
CONTINUOUS
 10
26.535002793
 20
109.801692266
 11
104.584004189
 21
64.7410997068
  0
LINE
  5
25C
100
AcDbEntity
  8
0
100
AcDbLine
 62
7
  6
CONTINUOUS
 10
21.6401409319
 20
112.7470402944
 11
104.584004189
 21
64.8604618545
  0
LINE
  5
25D
100
AcDbEntity
  8
0
100
AcDbLine
 62
7
  6
CONTINUOUS
 10
104.584004189
 20
64.952596137
 11
21.5445498801
 21
112.8943628479
  0
LINE
  5
25E
100
AcDbEntity
  8
0
100
AcDbLine
 62
7
  6
CONTINUOUS
 10
19.9821804853
 20
118.0220269101
 11
20.5367280593
 21
117.701865962
  0
LINE
  5
25F
100
AcDbEntity
  8
0
100
AcDbLine
 62
7
  6
CONTINUOUS
 10
54.603250407
 20
165.311434922
 11
54.603250407
 21
163.6784300877
  0
LINE
  5
260
100
AcDbEntity
  8
0
100
AcDbLine
 62
7
  6
CONTINUOUS
 10
57.7666916764
 20
174.5216188666
 11
57.7666916764
 21
173.6271658136
  0
LINE
  5
261
100
AcDbEntity
  8
0
100
AcDbLine
 62
7
  6
CONTINUOUS
 10
58.7666916764
 20
174.5216188666
 11
58.7666916764
 21
173.2015238426
  0
LINE
  5
262
100
AcDbEntity
  8
0
100
AcDbLine
 62
7
  6
CONTINUOUS
 10
59.1039646743
 20
150.5327748255
 11
59.1039646743
 21
148.6548192661
  0
LINE
  5
263
100
AcDbEntity
  8
0
100
AcDbLine
 62
7
  6
CONTINUOUS
 10
59.8238160993
 20
144.4906728317
 11
59.8238102113
 21
149.0630688589
  0
LINE
  5
264
100
AcDbEntity
  8
0
100
AcDbLine
 62
7
  6
CONTINUOUS
 10
59.9485358592
 20
176.3816988869
 11
59.9485358592
 21
172.8321050506
  0
LINE
  5
265
100
AcDbEntity
  8
0
100
AcDbLine
 62
7
  6
CONTINUOUS
 10
55.964800473
 20
164.6817002242
 11
55.9041204732
 21
162.7102641591
  0
LINE
  5
266
100
AcDbEntity
  8
0
100
AcDbLine
 62
7
  6
CONTINUOUS
 10
55.9648305015
 20
160.5176271914
 11
55.5104826923
 21
145.7562946119
  0
LINE
  5
267
100
AcDbEntity
  8
0
100
AcDbLine
 62
7
  6
CONTINUOUS
 10
56.5788651437
 20
162.003842731
 11
56.7379696652
 21
165.7228219841
  0
LINE
  5
268
100
AcDbEntity
  8
0
100
AcDbLine
 62
7
  6
CONTINUOUS
 10
56.0956534451
 20
146.5442644511
 11
56.7379996936
 21
161.5587489513
  0
LINE
  5
269
100
AcDbEntity
  8
0
100
AcDbLine
 62
7
  6
CONTINUOUS
 10
45.9318673451
 20
127.5081725688
 11
47.1144340609
 21
128.190923705
  0
LINE
  5
26A
100
AcDbEntity
  8
0
100
AcDbLine
 62
7
  6
CONTINUOUS
 10
19.815363282
 20
121.1429141133
 11
104.584004189
 21
72.2028236396
  0
LINE
  5
26B
100
AcDbEntity
  8
0
100
AcDbLine
 62
7
  6
CONTINUOUS
 10
120.393516909
 20
66.6682232235
 11
121.8077363593
 21
65.8517417144
  0
LINE
  5
26C
100
AcDbEntity
  8
0
100
AcDbLine
 62
7
  6
CONTINUOUS
 10
43.4190129638
 20
111.7491070825
 11
19.3772823088
 21
125.6292927362
  0
LINE
  5
26D
100
AcDbEntity
  8
0
100
AcDbLine
 62
7
  6
CONTINUOUS
 10
60.9485358592
 20
176.3816988869
 11
60.9485358592
 21
172.6308474487
  0
LINE
  5
26E
100
AcDbEntity
  8
0
100
AcDbLine
 62
7
  6
CONTINUOUS
 10
61.533582279
 20
153.227163666
 11
61.533582279
 21
151.3492081066
  0
LINE
  5
26F
100
AcDbEntity
  8
0
100
AcDbLine
 62
7
  6
CONTINUOUS
 10
61.7632507385
 20
172.8434760686
 11
61.7632507385
 21
172.4668798858
  0
LINE
  5
270
100
AcDbEntity
  8
0
100
AcDbLine
 62
7
  6
CONTINUOUS
 10
62.2848188319
 20
157.0893659416
 11
62.2848188319
 21
154.2607806366
  0
LINE
  5
271
100
AcDbEntity
  8
0
100
AcDbLine
 62
7
  6
CONTINUOUS
 10
62.7270543952
 20
174.9201892231
 11
62.7270543952
 21
172.9311283256
  0
LINE
  5
272
100
AcDbEntity
  8
0
100
AcDbLine
 62
7
  6
CONTINUOUS
 10
62.7632507385
 20
172.8434760686
 11
62.7632507385
 21
172.3979050645
  0
LINE
  5
273
100
AcDbEntity
  8
0
100
AcDbLine
 62
7
  6
CONTINUOUS
 10
63.0764878625
 20
149.6345880993
 11
63.0764878625
 21
147.1850808479
  0
LINE
  5
274
100
AcDbEntity
  8
0
100
AcDbLine
 62
7
  6
CONTINUOUS
 10
63.690858052
 20
176.9969023775
 11
63.690858052
 21
175.0078414801
  0
LINE
  5
275
100
AcDbEntity
  8
0
100
AcDbLine
 62
7
  6
CONTINUOUS
 10
63.7270543952
 20
174.9201892231
 11
63.7270543952
 21
172.3777717355
  0
LINE
  5
276
100
AcDbEntity
  8
0
100
AcDbLine
 62
7
  6
CONTINUOUS
 10
64.4907014249
 20
149.6345914987
 11
64.4907014249
 21
147.1850842473
  0
LINE
  5
277
100
AcDbEntity
  8
0
100
AcDbLine
 62
7
  6
CONTINUOUS
 10
64.690858052
 20
176.9969023775
 11
64.690858052
 21
172.3576384066
  0
LINE
  5
278
100
AcDbEntity
  8
0
100
AcDbLine
 62
7
  6
CONTINUOUS
 10
65.2823240865
 20
157.0757769338
 11
65.2823240865
 21
154.2230904776
  0
LINE
  5
279
100
AcDbEntity
  8
0
100
AcDbLine
 62
7
  6
CONTINUOUS
 10
65.3602668318
 20
173.3999377067
 11
65.3602668318
 21
172.4321646323
  0
LINE
  5
27A
100
AcDbEntity
  8
0
100
AcDbLine
 62
7
  6
CONTINUOUS
 10
66.033582279
 20
153.227163666
 11
66.033582279
 21
151.3492081066
  0
LINE
  5
27B
100
AcDbEntity
  8
0
100
AcDbLine
 62
7
  6
CONTINUOUS
 10
66.3240704885
 20
175.4766508611
 11
66.3240704885
 21
173.4875899637
  0
LINE
  5
27C
100
AcDbEntity
  8
0
100
AcDbLine
 62
7
  6
CONTINUOUS
 10
66.3602668318
 20
173.3999377067
 11
66.3602668318
 21
172.5874406077
  0
LINE
  5
27D
100
AcDbEntity
  8
0
100
AcDbLine
 62
7
  6
CONTINUOUS
 10
104.584004189
 20
81.6814302012
 11
43.857093937
 21
116.7413350213
  0
LINE
  5
27E
100
AcDbEntity
  8
0
100
AcDbLine
 62
7
  6
CONTINUOUS
 10
67.3240704885
 20
175.4766508611
 11
67.3240704885
 21
172.7370961606
  0
LINE
  5
27F
100
AcDbEntity
  8
0
100
AcDbLine
 62
7
  6
CONTINUOUS
 10
68.9418219362
 20
174.0584222821
 11
68.9418219362
 21
173.269718296
  0
LINE
  5
280
100
AcDbEntity
  8
0
100
AcDbLine
 62
7
  6
CONTINUOUS
 10
69.9418219362
 20
174.0584222821
 11
69.9418219362
 21
173.6330079872
  0
LINE
  5
281
100
AcDbEntity
  8
0
100
AcDbLine
 62
7
  6
CONTINUOUS
 10
45.5862805351
 20
126.986567064
 11
104.584004189
 21
92.9249860068
  0
LINE
  5
282
100
AcDbEntity
  8
0
100
AcDbLine
 62
7
  6
CONTINUOUS
 10
75.0335239885
 20
177.8037130851
 11
75.0335239885
 21
175.3542058337
  0
LINE
  5
283
100
AcDbEntity
  8
0
100
AcDbLine
 62
7
  6
CONTINUOUS
 10
75.1854485126
 20
162.4310259526
 11
75.1854485126
 21
158.567143244
  0
LINE
  5
284
100
AcDbEntity
  8
0
100
AcDbLine
 62
7
  6
CONTINUOUS
 10
75.2835239885
 20
175.3542058337
 11
75.2835239885
 21
167.1891816624
  0
LINE
  5
285
100
AcDbEntity
  8
0
100
AcDbLine
 62
7
  6
CONTINUOUS
 10
75.5335239885
 20
167.1891816624
 11
75.5335239885
 21
163.7598715105
  0
LINE
  5
286
100
AcDbEntity
  8
0
100
AcDbLine
 62
7
  6
CONTINUOUS
 10
75.5342382559
 20
161.3103979127
 11
75.5342382559
 21
159.4324423533
  0
LINE
  5
287
100
AcDbEntity
  8
0
100
AcDbLine
 62
7
  6
CONTINUOUS
 10
104.584004189
 20
93.6461116356
 11
45.9318673451
 21
127.5081725688
  0
LINE
  5
288
100
AcDbEntity
  8
0
100
AcDbLine
 62
7
  6
CONTINUOUS
 10
141.9320250549
 20
72.1309981865
 11
128.1433854146
 21
80.0916928996
  0
LINE
  5
289
100
AcDbEntity
  8
0
100
AcDbLine
 62
7
  6
CONTINUOUS
 10
104.584004189
 20
94.8075862019
 11
110.9479917154
 21
91.1334194112
  0
LINE
  5
28A
100
AcDbEntity
  8
0
100
AcDbLine
 62
7
  6
CONTINUOUS
 10
47.1144340609
 20
128.190923705
 11
104.6133455781
 21
94.9946626622
  0
LINE
  5
28B
100
AcDbEntity
  8
0
100
AcDbLine
 62
7
  6
CONTINUOUS
 10
43.4190129638
 20
134.2029235535
 11
19.3772823088
 21
148.0831092072
  0
LINE
  5
28C
100
AcDbEntity
  8
0
100
AcDbLine
 62
7
  6
CONTINUOUS
 10
42.146214281
 20
135.1010538933
 11
25.8826906026
 21
144.4905912473
  0
LINE
  5
28D
100
AcDbEntity
  8
0
100
AcDbLine
 62
7
  6
CONTINUOUS
 10
80.0342382559
 20
161.3103979127
 11
80.0342382559
 21
159.4324423533
  0
LINE
  5
28E
100
AcDbEntity
  8
0
100
AcDbLine
 62
7
  6
CONTINUOUS
 10
80.7540896808
 20
156.5746997863
 11
80.7540837929
 21
159.8406919461
  0
LINE
  5
28F
100
AcDbEntity
  8
0
100
AcDbLine
 62
7
  6
CONTINUOUS
 10
82.3097240106
 20
145.897717655
 11
82.3097240106
 21
156.6563520165
  0
LINE
  5
290
100
AcDbEntity
  8
0
100
AcDbLine
 62
7
  6
CONTINUOUS
 10
107.9720253257
 20
100.8122455233
 11
50.4731772876
 21
134.0084699172
  0
LINE
  5
291
100
AcDbEntity
  8
0
100
AcDbLine
 62
7
  6
CONTINUOUS
 10
25.8826906026
 20
148.2465023661
 11
42.146214281
 21
138.8569650121
  0
LINE
  5
292
100
AcDbEntity
  8
0
100
AcDbLine
 62
7
  6
CONTINUOUS
 10
114.4835109014
 20
97.2571522662
 11
108.1195233751
 21
100.9313190569
  0
LINE
  5
293
100
AcDbEntity
  8
0
100
AcDbLine
 62
7
  6
CONTINUOUS
 10
146.4319487033
 20
79.9252709017
 11
132.6433090629
 21
87.8859656148
  0
LINE
  5
294
100
AcDbEntity
  8
0
100
AcDbLine
 62
7
  6
CONTINUOUS
 10
50.4731772876
 20
135.4932131997
 11
109.2284965682
 21
101.5715812066
  0
LINE
  5
295
100
AcDbEntity
  8
0
100
AcDbLine
 62
7
  6
CONTINUOUS
 10
109.6667695419
 20
101.8246167155
 11
50.6227014218
 21
135.9129541574
  0
LINE
  5
296
100
AcDbEntity
  8
0
100
AcDbLine
 62
7
  6
CONTINUOUS
 10
115.5514825305
 20
105.2221370631
 11
54.3864913053
 21
140.5349623291
  0
LINE
  5
297
100
AcDbEntity
  8
0
100
AcDbLine
 62
7
  6
CONTINUOUS
 10
29.2463301507
 20
155.0652985157
 11
28.2372757253
 21
155.6478631804
  0
LINE
  5
298
100
AcDbEntity
  8
0
100
AcDbLine
 62
7
  6
CONTINUOUS
 10
29.7417159
 20
160.5175641588
 11
37.3785009316
 21
156.10856401
  0
LINE
  5
299
100
AcDbEntity
  8
0
100
AcDbLine
 62
7
  6
CONTINUOUS
 10
29.7416858716
 20
164.6816371916
 11
30.1659517067
 21
164.4366927389
  0
LINE
  5
29A
100
AcDbEntity
  8
0
100
AcDbLine
 62
7
  6
CONTINUOUS
 10
44.1667242646
 20
156.3535257994
 11
44.5909900997
 21
156.1085813467
  0
LINE
  5
29B
100
AcDbEntity
  8
0
100
AcDbLine
 62
7
  6
CONTINUOUS
 10
43.5604278433
 20
135.1010572927
 11
42.146214281
 21
135.1010538933
  0
LINE
  5
29C
100
AcDbEntity
  8
0
100
AcDbLine
 62
7
  6
CONTINUOUS
 10
140.3931775685
 20
101.309435291
 11
141.8073970188
 21
100.492953782
  0
LINE
  5
29D
100
AcDbEntity
  8
0
100
AcDbLine
 62
7
  6
CONTINUOUS
 10
63.0764878625
 20
147.1850808479
 11
59.1039646743
 21
149.4786624715
  0
LINE
  5
29E
100
AcDbEntity
  8
0
100
AcDbLine
 62
7
  6
CONTINUOUS
 10
56.3929432343
 20
153.493247095
 11
63.0764878625
 21
149.6345880993
  0
LINE
  5
29F
100
AcDbEntity
  8
0
100
AcDbLine
 62
7
  6
CONTINUOUS
 10
104.584004189
 20
58.064977431
 11
104.584004189
 21
94.8075862019
  0
LINE
  5
2A0
100
AcDbEntity
  8
0
100
AcDbLine
 62
7
  6
CONTINUOUS
 10
42.146214281
 20
138.8569650121
 11
43.5604278433
 21
138.8569684115
  0
LINE
  5
2A1
100
AcDbEntity
  8
0
100
AcDbLine
 62
7
  6
CONTINUOUS
 10
71.3422456691
 20
150.3243132409
 11
132.5072368943
 21
115.0114879748
  0
LINE
  5
2A2
100
AcDbEntity
  8
0
100
AcDbLine
 62
7
  6
CONTINUOUS
 10
134.1501036727
 20
115.9599918897
 11
75.1060355526
 21
150.0483293317
  0
LINE
  5
2A3
100
AcDbEntity
  8
0
100
AcDbLine
 62
7
  6
CONTINUOUS
 10
75.1520035264
 20
150.0301360156
 11
134.157331369
 21
115.9641647773
  0
LINE
  5
2A4
100
AcDbEntity
  8
0
100
AcDbLine
 62
7
  6
CONTINUOUS
 10
55.9648149423
 20
162.6752229838
 11
55.5405491073
 21
162.9201674365
  0
LINE
  5
2A5
100
AcDbEntity
  8
0
100
AcDbLine
 62
7
  6
CONTINUOUS
 10
110.9479917154
 20
91.1334194112
 11
110.9479917154
 21
54.3908106404
  0
LINE
  5
2A6
100
AcDbEntity
  8
0
100
AcDbLine
 62
7
  6
CONTINUOUS
 10
108.1195233751
 20
100.9313190569
 11
139.9391960497
 21
119.3023059811
  0
LINE
  5
2A7
100
AcDbEntity
  8
0
100
AcDbLine
 62
7
  6
CONTINUOUS
 10
64.4907014249
 20
147.1850842473
 11
63.0764878625
 21
147.1850808479
  0
LINE
  5
2A8
100
AcDbEntity
  8
0
100
AcDbLine
 62
7
  6
CONTINUOUS
 10
63.0764878625
 20
149.6345880993
 11
64.4907014249
 21
149.6345914987
  0
LINE
  5
2A9
100
AcDbEntity
  8
0
100
AcDbLine
 62
7
  6
CONTINUOUS
 10
75.1060355526
 20
150.0483293317
 11
75.1519492024
 21
150.0300416628
  0
LINE
  5
2AA
100
AcDbEntity
  8
0
100
AcDbLine
 62
7
  6
CONTINUOUS
 10
55.9647849139
 20
166.8392960166
 11
54.353250407
 21
167.7696948495
  0
LINE
  5
2AB
100
AcDbEntity
  8
0
100
AcDbLine
 62
7
  6
CONTINUOUS
 10
139.9391960497
 20
119.3023059811
 11
146.3031835761
 21
115.6281391904
  0
LINE
  5
2AC
100
AcDbEntity
  8
0
100
AcDbLine
 62
7
  6
CONTINUOUS
 10
148.8031411585
 20
115.8757786132
 11
142.4391536322
 21
119.5499454039
  0
LINE
  5
2AD
100
AcDbEntity
  8
0
100
AcDbLine
 62
7
  6
CONTINUOUS
 10
146.3031835761
 20
115.6281391904
 11
114.4835109014
 21
97.2571522662
  0
LINE
  5
2AE
100
AcDbEntity
  8
0
100
AcDbLine
 62
7
  6
CONTINUOUS
 10
82.3097240106
 20
156.6563520165
 11
80.7540896808
 21
157.5544775972
  0
LINE
  5
2AF
100
AcDbEntity
  8
0
100
AcDbLine
 62
7
  6
CONTINUOUS
 10
80.7540837929
 20
159.8406919461
 11
80.0342382559
 21
160.2562855587
  0
LINE
  5
2B0
100
AcDbEntity
  8
0
100
AcDbLine
 62
7
  6
CONTINUOUS
 10
76.3590875356
 20
162.3780868148
 11
75.3786277928
 21
162.9441427053
  0
LINE
  5
2B1
100
AcDbEntity
  8
0
100
AcDbLine
 62
7
  6
CONTINUOUS
 10
147.3639570904
 20
77.4570179781
 11
147.3639541465
 21
77.8652638318
  0
LINE
  5
2B2
100
AcDbEntity
  8
0
100
AcDbLine
 62
7
  6
CONTINUOUS
 10
144.5355417417
 20
77.9877455722
 11
145.2041356962
 21
78.231327195
  0
LINE
  5
2B3
100
AcDbEntity
  8
0
100
AcDbLine
 62
7
  6
CONTINUOUS
 10
149.8387027621
 20
76.8442391033
 11
149.8387027621
 21
113.5868478741
  0
LINE
  5
2B4
100
AcDbEntity
  8
0
100
AcDbLine
 62
7
  6
CONTINUOUS
 10
144.5355417417
 20
72.5580044983
 11
144.1819868791
 21
72.353873667
  0
LINE
  5
2B5
100
AcDbEntity
  8
0
100
AcDbLine
 62
7
  6
CONTINUOUS
 10
114.4835109014
 20
52.3495193241
 11
146.3031835761
 21
70.7205062483
  0
ARC
  5
2B6
100
AcDbEntity
  8
0
100
AcDbCircle
 62
7
  6
CONTINUOUS
 10
42.7321711499
 20
185.3643872146
 40
17.8237073085
100
AcDbArc
 50
259.9026294603
 51
262.3172108646
  0
ARC
  5
2B7
100
AcDbEntity
  8
0
100
AcDbCircle
 62
7
  6
CONTINUOUS
 10
63.7987798292
 20
156.5215910913
 40
16.1519153497
100
AcDbArc
 50
84.4004971241
 51
86.8234843354
  0
ARC
  5
2B8
100
AcDbEntity
  8
0
100
AcDbCircle
 62
7
  6
CONTINUOUS
 10
63.7147547117
 20
157.01676159
 40
15.6538292344
100
AcDbArc
 50
97.2380107723
 51
97.5174862834
  0
ARC
  5
2B9
100
AcDbEntity
  8
0
100
AcDbCircle
 62
7
  6
CONTINUOUS
 10
41.9579789064
 20
162.8228292333
 40
11.8009489857
100
AcDbArc
 50
108.4612473997
 51
111.3044510762
  0
ARC
  5
2BA
100
AcDbEntity
  8
0
100
AcDbCircle
 62
7
  6
CONTINUOUS
 10
136.0719299637
 20
93.8893130234
 40
6.0886879195
100
AcDbArc
 50
44.5022397945
 51
53.8756448313
  0
ARC
  5
2BB
100
AcDbEntity
  8
0
100
AcDbCircle
 62
7
  6
CONTINUOUS
 10
23.7779968333
 20
119.0049882281
 40
4.5103209736
100
AcDbArc
 50
151.678179864
 51
152.2462201556
  0
ARC
  5
2BC
100
AcDbEntity
  8
0
100
AcDbCircle
 62
7
  6
CONTINUOUS
 10
63.2686788768
 20
152.6080837095
 40
1.8696681848
100
AcDbArc
 50
119.9942479403
 51
122.2497952592
  0
ARC
  5
2BD
100
AcDbEntity
  8
0
100
AcDbCircle
 62
7
  6
CONTINUOUS
 10
77.2693348535
 20
160.6913179563
 40
1.8696681846
100
AcDbArc
 50
119.9942479402
 51
122.2497952594
  0
ARC
  5
2BE
100
AcDbEntity
  8
0
100
AcDbCircle
 62
7
  6
CONTINUOUS
 10
42.3334169698
 20
141.8387283787
 40
1.8600139631
100
AcDbArc
 50
119.9884842858
 51
122.2550319343
  0
ARC
  5
2BF
100
AcDbEntity
  8
0
100
AcDbCircle
 62
7
  6
CONTINUOUS
 10
28.3326444118
 20
149.9218953183
 40
1.860013963
100
AcDbArc
 50
119.9884842857
 51
122.2550319344
  0
ARC
  5
2C0
100
AcDbEntity
  8
0
100
AcDbCircle
 62
7
  6
CONTINUOUS
 10
147.0448931019
 20
76.4465002868
 40
0.9562141818
100
AcDbArc
 50
70.4411665446
 51
72.7846550285
  0
ARC
  5
2C1
100
AcDbEntity
  8
0
100
AcDbCircle
 62
7
  6
CONTINUOUS
 10
147.0537965063
 20
76.4707682379
 40
0.9303659385
100
AcDbArc
 50
60.0518536264
 51
70.457509006
  0
ARC
  5
2C2
100
AcDbEntity
  8
0
100
AcDbCircle
 62
7
  6
CONTINUOUS
 10
145.2313957452
 20
73.3151033795
 40
0.9255152462
100
AcDbArc
 50
229.6282434784
 51
239.9767731004
  0
ARC
  5
2C3
100
AcDbEntity
  8
0
100
AcDbCircle
 62
7
  6
CONTINUOUS
 10
37.8803734081
 20
173.0926057528
 40
0.4926561337
100
AcDbArc
 50
296.5699240121
 51
299.9658030709
  0
ARC
  5
2C4
100
AcDbEntity
  8
0
100
AcDbCircle
 62
7
  6
CONTINUOUS
 10
26.6192414338
 20
109.9475668874
 40
0.1684143392
100
AcDbArc
 50
236.8696912712
 51
239.9946846161
  0
SPLINE
  5
2C5
100
AcDbEntity
  8
0
100
AcDbSpline
 62
7
  6
CONTINUOUS
 70
0
 71
3
 72
15
 73
11
 74
0
 42
0.0000001
 43
0.0000001
 44
0.0000000001
 40
0.0
 40
0.0
 40
0.0
 40
0.0
 40
0.1141570538
 40
0.2373234991
 40
0.3669732838
 40
0.4999978487
 40
0.6330240191
 40
0.7626747485
 40
0.8858461724
 40
1.0
 40
1.0
 40
1.0
 40
1.0
 10
144.5355417417
 20
72.5580044983
 30
0.0
 10
144.7291748282
 20
72.6697979456
 30
0.0
 10
145.1116257747
 20
72.9378871089
 30
0.0
 10
145.6378444852
 20
73.4302288689
 30
0.0
 10
146.1227994872
 20
74.0121901256
 30
0.0
 10
146.5482050807
 20
74.6619818679
 30
0.0
 10
146.8982345167
 20
75.3552932509
 30
0.0
 10
147.1597575706
 20
76.0662711504
 30
0.0
 10
147.3230038995
 20
76.7681721196
 30
0.0
 10
147.3639508704
 20
77.2334316281
 30
0.0
 10
147.3639488298
 20
77.4570132049
 30
0.0
  0
SPLINE
  5
2C6
100
AcDbEntity
  8
0
100
AcDbSpline
 62
7
  6
CONTINUOUS
 70
0
 71
3
 72
14
 73
10
 74
0
 42
0.0000001
 43
0.0000001
 44
0.0000000001
 40
0.0
 40
0.0
 40
0.0
 40
0.0
 40
0.2892788653
 40
0.4225377757
 40
0.5484922879
 40
0.6678921494
 40
0.7818655142
 40
0.8919499048
 40
1.0
 40
1.0
 40
1.0
 40
1.0
 10
130.3933472388
 20
87.6630901343
 30
0.0
 10
130.5908733624
 20
87.7771312142
 30
0.0
 10
130.8941241111
 20
87.9214629478
 30
0.0
 10
131.3100046076
 20
88.0427316162
 30
0.0
 10
131.6051962597
 20
88.0922335602
 30
0.0
 10
131.8892326977
 20
88.1021343008
 30
0.0
 10
132.1594262924
 20
88.0719947835
 30
0.0
 10
132.4128790469
 20
88.0019015876
 30
0.0
 10
132.5695286025
 20
87.9285592448
 30
0.0
 10
132.6433080351
 20
87.8859638346
 30
0.0
  0
SPLINE
  5
2C7
100
AcDbEntity
  8
0
100
AcDbSpline
 62
7
  6
CONTINUOUS
 70
0
 71
3
 72
24
 73
20
 74
0
 42
0.0000001
 43
0.0000001
 44
0.0000000001
 40
0.0
 40
0.0
 40
0.0
 40
0.0
 40
0.0213340647
 40
0.042896399
 40
0.0874750963
 40
0.1352544396
 40
0.1871597251
 40
0.2436018842
 40
0.3045544014
 40
0.3696469266
 40
0.4382491348
 40
0.5095407176
 40
0.5825702692
 40
0.6563074779
 40
0.7296896168
 40
0.8016705919
 40
0.8712672472
 40
0.9376128747
 40
1.0
 40
1.0
 40
1.0
 40
1.0
 10
128.1433864424
 20
80.0916946799
 30
0.0
 10
128.0880991399
 20
80.1236139457
 30
0.0
 10
127.9809295588
 20
80.1950285718
 30
0.0
 10
127.7826858006
 20
80.3668429446
 30
0.0
 10
127.5689174542
 20
80.6368192536
 30
0.0
 10
127.3799647005
 20
81.0281166177
 30
0.0
 10
127.257463929
 20
81.4813256137
 30
0.0
 10
127.2029606312
 20
81.9867406331
 30
0.0
 10
127.2168871742
 20
82.5340180396
 30
0.0
 10
127.2986820167
 20
83.1118527099
 30
0.0
 10
127.4465061378
 20
83.7081746155
 30
0.0
 10
127.6571951381
 20
84.3104009995
 30
0.0
 10
127.9262601162
 20
84.9057470913
 30
0.0
 10
128.2479672381
 20
85.4815248272
 30
0.0
 10
128.6154497536
 20
86.0254556429
 30
0.0
 10
129.0208729305
 20
86.5259273231
 30
0.0
 10
129.4556475322
 20
86.9723329042
 30
0.0
 10
129.9104873014
 20
87.3551038065
 30
0.0
 10
130.2316716525
 20
87.5697472482
 30
0.0
 10
130.3933472388
 20
87.6630901343
 30
0.0
  0
SPLINE
  5
2C8
100
AcDbEntity
  8
0
100
AcDbSpline
 62
7
  6
CONTINUOUS
 70
0
 71
3
 72
14
 73
10
 74
0
 42
0.0000001
 43
0.0000001
 44
0.0000000001
 40
0.0
 40
0.0
 40
0.0
 40
0.0
 40
0.1080482432
 40
0.2181322873
 40
0.3321068339
 40
0.4515071146
 40
0.5774612857
 40
0.7107200697
 40
1.0
 40
1.0
 40
1.0
 40
1.0
 10
141.932025055
 20
72.1309981865
 30
0.0
 10
142.0058032401
 20
72.0884034701
 30
0.0
 10
142.1624509289
 20
72.0150609597
 30
0.0
 10
142.415903488
 20
71.9449696457
 30
0.0
 10
142.686097915
 20
71.9148286277
 30
0.0
 10
142.9701355677
 20
71.9247291058
 30
0.0
 10
143.2653272016
 20
71.9742314879
 30
0.0
 10
143.6812084214
 20
72.0954999048
 30
0.0
 10
143.9844599518
 20
72.2398321231
 30
0.0
 10
144.1819868791
 20
72.353873667
 30
0.0
  0
SPLINE
  5
2C9
100
AcDbEntity
  8
0
100
AcDbSpline
 62
7
  6
CONTINUOUS
 70
0
 71
3
 72
16
 73
12
 74
0
 42
0.0000001
 43
0.0000001
 44
0.0000000001
 40
0.0
 40
0.0
 40
0.0
 40
0.0
 40
0.0992140637
 40
0.1542129031
 40
0.2126443474
 40
0.3384381873
 40
0.4731078768
 40
0.6117984981
 40
0.7491623906
 40
0.8800109863
 40
1.0
 40
1.0
 40
1.0
 40
1.0
 10
142.7850757563
 20
74.0413002916
 30
0.0
 10
142.7274170235
 20
74.1822962001
 30
0.0
 10
142.6742015706
 20
74.4169739708
 30
0.0
 10
142.6571740881
 20
74.7431939923
 30
0.0
 10
142.6763539336
 20
75.1106758732
 30
0.0
 10
142.7712772539
 20
75.5936307664
 30
0.0
 10
142.981172292
 20
76.1716154765
 30
0.0
 10
143.278197497
 20
76.730183284
 30
0.0
 10
143.6457764012
 20
77.2379665001
 30
0.0
 10
144.0630996561
 20
77.6664850901
 30
0.0
 10
144.3759962748
 20
77.8956325038
 30
0.0
 10
144.5355417417
 20
77.9877455722
 30
0.0
  0
SPLINE
  5
2CA
100
AcDbEntity
  8
0
100
AcDbSpline
 62
7
  6
CONTINUOUS
 70
0
 71
3
 72
14
 73
10
 74
0
 42
0.0000001
 43
0.0000001
 44
0.0000000001
 40
0.0
 40
0.0
 40
0.0
 40
0.0
 40
0.2892707544
 40
0.4225372455
 40
0.5484966612
 40
0.6678939361
 40
0.7818682813
 40
0.8919523447
 40
1.0
 40
1.0
 40
1.0
 40
1.0
 10
147.3639541465
 20
77.8652638318
 30
0.0
 10
147.3639524983
 20
78.09334676
 30
0.0
 10
147.3373143071
 20
78.428143305
 30
0.0
 10
147.2343951138
 20
78.8489555302
 30
0.0
 10
147.1296697611
 20
79.1293676367
 30
0.0
 10
146.9962115941
 20
79.3803051358
 30
0.0
 10
146.8350075654
 20
79.5992323443
 30
0.0
 10
146.647574365
 20
79.7836862721
 30
0.0
 10
146.5057284453
 20
79.8826752864
 30
0.0
 10
146.4319487033
 20
79.9252709016
 30
0.0
  0
SPLINE
  5
2CB
100
AcDbEntity
  8
0
100
AcDbSpline
 62
7
  6
CONTINUOUS
 70
0
 71
3
 72
27
 73
23
 74
0
 42
0.0000001
 43
0.0000001
 44
0.0000000001
 40
0.0
 40
0.0
 40
0.0
 40
0.0
 40
0.0663857348
 40
0.1378539611
 40
0.2130757993
 40
0.2904093365
 40
0.3680612965
 40
0.4442116706
 40
0.5171520698
 40
0.5854239364
 40
0.6479815121
 40
0.6769865907
 40
0.704467634
 40
0.755159165
 40
0.7788534581
 40
0.8017856774
 40
0.8243124621
 40
0.8468237771
 40
0.869710312
 40
0.8933324675
 40
0.9438224917
 40
1.0
 40
1.0
 40
1.0
 40
1.0
 10
144.5355417417
 20
79.0900238353
 30
0.0
 10
144.3502605745
 20
78.9830523421
 30
0.0
 10
143.9839064937
 20
78.7282641736
 30
0.0
 10
143.4772476796
 20
78.2622735604
 30
0.0
 10
143.0070873807
 20
77.7122271803
 30
0.0
 10
142.589738253
 20
77.0970921754
 30
0.0
 10
142.2394922724
 20
76.4380335032
 30
0.0
 10
141.9684526145
 20
75.7577874359
 30
0.0
 10
141.7859359163
 20
75.0796436277
 30
0.0
 10
141.6982751335
 20
74.42682187
 30
0.0
 10
141.7072196687
 20
73.9091183908
 30
0.0
 10
141.7679364528
 20
73.5296389466
 30
0.0
 10
141.857276015
 20
73.1956378139
 30
0.0
 10
141.9956791716
 20
72.893208513
 30
0.0
 10
142.1848735735
 20
72.6417868449
 30
0.0
 10
142.3450565254
 20
72.4854902467
 30
0.0
 10
142.5251263268
 20
72.3590630008
 30
0.0
 10
142.7233126574
 20
72.2638308875
 30
0.0
 10
142.937581074
 20
72.2007250102
 30
0.0
 10
143.2484896566
 20
72.1590785248
 30
0.0
 10
143.6720057723
 20
72.194890623
 30
0.0
 10
144.0012818905
 20
72.3024786631
 30
0.0
 10
144.1678413899
 20
72.3734392272
 30
0.0
  0
SPLINE
  5
2CC
100
AcDbEntity
  8
0
100
AcDbSpline
 62
7
  6
CONTINUOUS
 70
0
 71
3
 72
9
 73
5
 74
0
 42
0.0000001
 43
0.0000001
 44
0.0000000001
 40
0.0
 40
0.0
 40
0.0
 40
0.0
 40
0.2436931842
 40
1.0
 40
1.0
 40
1.0
 40
1.0
 10
144.1678413899
 20
72.3734392272
 30
0.0
 10
144.1985982381
 20
72.3865427926
 30
0.0
 10
144.3239264883
 20
72.4423744506
 30
0.0
 10
144.4456859576
 20
72.5061265468
 30
0.0
 10
144.5355417417
 20
72.5580044983
 30
0.0
  0
SPLINE
  5
2CD
100
AcDbEntity
  8
0
100
AcDbSpline
 62
7
  6
CONTINUOUS
 70
0
 71
3
 72
13
 73
9
 74
0
 42
0.0000001
 43
0.0000001
 44
0.0000000001
 40
0.0
 40
0.0
 40
0.0
 40
0.0
 40
0.1175263373
 40
0.2415197205
 40
0.5005932151
 40
0.7593553989
 40
0.8829905866
 40
1.0
 40
1.0
 40
1.0
 40
1.0
 10
142.8417067518
 20
75.6732818688
 30
0.0
 10
142.9057187434
 20
75.7197621461
 30
0.0
 10
143.0311231736
 20
75.8239498204
 30
0.0
 10
143.2650829415
 20
76.0671583521
 30
0.0
 10
143.5153581975
 20
76.4228084662
 30
0.0
 10
143.6957115745
 20
76.8182906633
 30
0.0
 10
143.7868712178
 20
77.1423935134
 30
0.0
 10
143.8130717286
 20
77.3027208798
 30
0.0
 10
143.8206311549
 20
77.3811165293
 30
0.0
  0
SPLINE
  5
2CE
100
AcDbEntity
  8
0
100
AcDbSpline
 62
7
  6
CONTINUOUS
 70
0
 71
3
 72
15
 73
11
 74
0
 42
0.0000001
 43
0.0000001
 44
0.0000000001
 40
0.0
 40
0.0
 40
0.0
 40
0.0
 40
0.1514655779
 40
0.2907197849
 40
0.4184589777
 40
0.5368516174
 40
0.6494877996
 40
0.7610745823
 40
0.8765316266
 40
1.0
 40
1.0
 40
1.0
 40
1.0
 10
144.5355417417
 20
73.6602827614
 30
0.0
 10
144.4450840858
 20
73.6080573212
 30
0.0
 10
144.2648876044
 20
73.5184604551
 30
0.0
 10
143.9888106399
 20
73.4301841179
 30
0.0
 10
143.7235043057
 20
73.3959904648
 30
0.0
 10
143.4748180887
 20
73.4177485371
 30
0.0
 10
143.2492069952
 20
73.4963766259
 30
0.0
 10
143.0537297726
 20
73.6303896628
 30
0.0
 10
142.8942905197
 20
73.8151909841
 30
0.0
 10
142.817303951
 20
73.9624910051
 30
0.0
 10
142.7850757563
 20
74.0413002916
 30
0.0
  0
SPLINE
  5
2CF
100
AcDbEntity
  8
0
100
AcDbSpline
 62
7
  6
CONTINUOUS
 70
0
 71
3
 72
18
 73
14
 74
0
 42
0.0000001
 43
0.0000001
 44
0.0000000001
 40
0.0
 40
0.0
 40
0.0
 40
0.0
 40
0.0940305028
 40
0.1466771991
 40
0.2031827664
 40
0.2633880688
 40
0.32693204
 40
0.3933026229
 40
0.461874437
 40
0.6026296159
 40
0.7431635251
 40
0.877347931
 40
1.0
 40
1.0
 40
1.0
 40
1.0
 10
144.2428598692
 20
77.7653299128
 30
0.0
 10
144.2926741427
 20
77.6885902578
 30
0.0
 10
144.3457710298
 20
77.5523231907
 30
0.0
 10
144.377600162
 20
77.3570713427
 30
0.0
 10
144.3837884114
 20
77.1919311271
 30
0.0
 10
144.3711155116
 20
77.0167233314
 30
0.0
 10
144.3399130635
 20
76.8341187454
 30
0.0
 10
144.2906945159
 20
76.6471273713
 30
0.0
 10
144.2013467047
 20
76.3939379393
 30
0.0
 10
144.0509818082
 20
76.0869865533
 30
0.0
 10
143.8211360088
 20
75.752625858
 30
0.0
 10
143.5549760983
 20
75.4700860439
 30
0.0
 10
143.352904504
 20
75.3197276421
 30
0.0
 10
143.2495542727
 20
75.2600587144
 30
0.0
  0
SPLINE
  5
2D0
100
AcDbEntity
  8
0
100
AcDbSpline
 62
7
  6
CONTINUOUS
 70
0
 71
3
 72
11
 73
7
 74
0
 42
0.0000001
 43
0.0000001
 44
0.0000000001
 40
0.0
 40
0.0
 40
0.0
 40
0.0
 40
0.2781785817
 40
0.536964377
 40
0.7767417087
 40
1.0
 40
1.0
 40
1.0
 40
1.0
 10
143.2495542727
 20
75.2600587144
 30
0.0
 10
143.2015725496
 20
75.232356619
 30
0.0
 10
143.1058920234
 20
75.1839053474
 30
0.0
 10
142.9595009987
 20
75.1323472845
 30
0.0
 10
142.8176511947
 20
75.1055125431
 30
0.0
 10
142.7247703754
 20
75.1046195223
 30
0.0
 10
142.6805017097
 20
75.1088045045
 30
0.0
  0
SPLINE
  5
2D1
100
AcDbEntity
  8
0
100
AcDbSpline
 62
7
  6
CONTINUOUS
 70
0
 71
3
 72
24
 73
20
 74
0
 42
0.0000001
 43
0.0000001
 44
0.0000000001
 40
0.0
 40
0.0
 40
0.0
 40
0.0
 40
0.0623866364
 40
0.1287316957
 40
0.1983283848
 40
0.2703105813
 40
0.3436930422
 40
0.4174301924
 40
0.4904600547
 40
0.56175205
 40
0.6303546571
 40
0.6954474536
 40
0.7564000702
 40
0.812842136
 40
0.8647471399
 40
0.9125260478
 40
0.9571042161
 40
0.9786662648
 40
1.0
 40
1.0
 40
1.0
 40
1.0
 10
144.1819868791
 20
79.7023954212
 30
0.0
 10
144.0203124823
 20
79.6090532218
 30
0.0
 10
143.699130282
 20
79.3944119467
 30
0.0
 10
143.2442924351
 20
79.0116431239
 30
0.0
 10
142.8095148112
 20
78.5652371672
 30
0.0
 10
142.4040890967
 20
78.0647610215
 30
0.0
 10
142.0366031145
 20
77.5208268231
 30
0.0
 10
141.7148957124
 20
76.9450468808
 30
0.0
 10
141.445829858
 20
76.3496986686
 30
0.0
 10
141.2351404032
 20
75.7474685343
 30
0.0
 10
141.0873164131
 20
75.1511429402
 30
0.0
 10
141.0055227233
 20
74.5733054708
 30
0.0
 10
140.9915981227
 20
74.0260268984
 30
0.0
 10
141.0461037503
 20
73.5206126838
 30
0.0
 10
141.1686066359
 20
73.0674065334
 30
0.0
 10
141.3575603941
 20
72.6761135534
 30
0.0
 10
141.571328259
 20
72.4061415646
 30
0.0
 10
141.7695701739
 20
72.2343301048
 30
0.0
 10
141.8767385886
 20
72.1629169895
 30
0.0
 10
141.932025055
 20
72.1309981865
 30
0.0
  0
SPLINE
  5
2D2
100
AcDbEntity
  8
0
100
AcDbSpline
 62
7
  6
CONTINUOUS
 70
0
 71
3
 72
26
 73
22
 74
0
 42
0.0000001
 43
0.0000001
 44
0.0000000001
 40
0.0
 40
0.0
 40
0.0
 40
0.0
 40
0.0490138143
 40
0.0721625852
 40
0.0947197629
 40
0.1169970567
 40
0.1393257722
 40
0.1620339191
 40
0.1854216958
 40
0.2351189396
 40
0.2899134916
 40
0.3503182702
 40
0.4161333588
 40
0.4866292382
 40
0.5607020288
 40
0.6369993982
 40
0.7140268307
 40
0.7902446878
 40
0.8641659507
 40
0.9344476062
 40
1.0
 40
1.0
 40
1.0
 40
1.0
 10
145.2041374209
 20
78.2313334037
 30
0.0
 10
145.3006692092
 20
78.244484011
 30
0.0
 10
145.4460257767
 20
78.2485524143
 30
0.0
 10
145.6318078275
 20
78.2150921666
 30
0.0
 10
145.7604975016
 20
78.1722431117
 30
0.0
 10
145.8798890875
 20
78.1113992969
 30
0.0
 10
145.9890212887
 20
78.0331237256
 30
0.0
 10
146.0869432699
 20
77.9380401229
 30
0.0
 10
146.2039147137
 20
77.7871048778
 30
0.0
 10
146.3175180445
 20
77.5566266789
 30
0.0
 10
146.3957901795
 20
77.236310535
 30
0.0
 10
146.4184473795
 20
76.8756528357
 30
0.0
 10
146.3853668287
 20
76.4848579192
 30
0.0
 10
146.2977988201
 20
76.0749567079
 30
0.0
 10
146.1583473473
 20
75.6577954204
 30
0.0
 10
145.971115898
 20
75.2455564378
 30
0.0
 10
145.7416082441
 20
74.8503547039
 30
0.0
 10
145.4765882103
 20
74.4838277952
 30
0.0
 10
145.1838058341
 20
74.1567250467
 30
0.0
 10
144.8719118347
 20
73.8786957316
 30
0.0
 10
144.6483821758
 20
73.7254308276
 30
0.0
 10
144.5355417417
 20
73.6602827614
 30
0.0
  0
SPLINE
  5
2D3
100
AcDbEntity
  8
0
100
AcDbSpline
 62
7
  6
CONTINUOUS
 70
0
 71
3
 72
9
 73
5
 74
0
 42
0.0000001
 43
0.0000001
 44
0.0000000001
 40
0.0
 40
0.0
 40
0.0
 40
0.0
 40
0.2565185313
 40
1.0
 40
1.0
 40
1.0
 40
1.0
 10
147.3639488298
 20
77.4570132049
 30
0.0
 10
147.3639485085
 20
77.4922201668
 30
0.0
 10
147.3620286661
 20
77.6294575436
 30
0.0
 10
147.3522424744
 20
77.7666245605
 30
0.0
 10
147.3399233816
 20
77.8679204503
 30
0.0
  0
SPLINE
  5
2D4
100
AcDbEntity
  8
0
100
AcDbSpline
 62
7
  6
CONTINUOUS
 70
0
 71
3
 72
19
 73
15
 74
0
 42
0.0000001
 43
0.0000001
 44
0.0000000001
 40
0.0
 40
0.0
 40
0.0
 40
0.0
 40
0.1373377528
 40
0.2613111181
 40
0.3193688921
 40
0.3755427337
 40
0.4306121448
 40
0.4854380984
 40
0.5408994777
 40
0.5978282972
 40
0.7185975061
 40
0.7836828188
 40
0.8522417208
 40
1.0
 40
1.0
 40
1.0
 40
1.0
 10
147.3399233816
 20
77.8679204503
 30
0.0
 10
147.3189645703
 20
78.0402579331
 30
0.0
 10
147.2514417906
 20
78.3659629509
 30
0.0
 10
147.0836321295
 20
78.7379709593
 30
0.0
 10
146.9061085111
 20
78.9823288646
 30
0.0
 10
146.7561198313
 20
79.1361085171
 30
0.0
 10
146.5877179761
 20
79.2628566157
 30
0.0
 10
146.4023639157
 20
79.3613120944
 30
0.0
 10
146.2017827303
 20
79.4306269609
 30
0.0
 10
145.9110739457
 20
79.4845232734
 30
0.0
 10
145.6002885018
 20
79.4749161254
 30
0.0
 10
145.2848396213
 20
79.4104971566
 30
0.0
 10
144.9450872495
 20
79.3032197287
 30
0.0
 10
144.6972979816
 20
79.1834132866
 30
0.0
 10
144.5355417417
 20
79.0900238353
 30
0.0
  0
SPLINE
  5
2D5
100
AcDbEntity
  8
0
100
AcDbSpline
 62
7
  6
CONTINUOUS
 70
0
 71
3
 72
14
 73
10
 74
0
 42
0.0000001
 43
0.0000001
 44
0.0000000001
 40
0.0
 40
0.0
 40
0.0
 40
0.0
 40
0.1080482432
 40
0.2181322873
 40
0.3321068339
 40
0.4515071146
 40
0.5774612857
 40
0.7107200697
 40
1.0
 40
1.0
 40
1.0
 40
1.0
 10
146.4319487033
 20
79.9252709016
 30
0.0
 10
146.3581705181
 20
79.9678656181
 30
0.0
 10
146.2015228294
 20
80.0412081285
 30
0.0
 10
145.9480702702
 20
80.1112994425
 30
0.0
 10
145.6778758432
 20
80.1414404605
 30
0.0
 10
145.3938381905
 20
80.1315399824
 30
0.0
 10
145.0986465566
 20
80.0820376003
 30
0.0
 10
144.6827653369
 20
79.9607691834
 30
0.0
 10
144.3795138064
 20
79.8164369651
 30
0.0
 10
144.1819868791
 20
79.7023954212
 30
0.0
  0
SPLINE
  5
2D6
100
AcDbEntity
  8
0
100
AcDbSpline
 62
7
  6
CONTINUOUS
 70
0
 71
3
 72
16
 73
12
 74
0
 42
0.0000001
 43
0.0000001
 44
0.0000000001
 40
0.0
 40
0.0
 40
0.0
 40
0.0
 40
0.0428749215
 40
0.0875218052
 40
0.1869210508
 40
0.3042319763
 40
0.4379526978
 40
0.5823548967
 40
0.7295670544
 40
0.8712583699
 40
1.0
 40
1.0
 40
1.0
 40
1.0
 10
58.7666711157
 20
174.5216188543
 30
0.0
 10
58.7666713751
 20
174.5358512566
 30
0.0
 10
58.7628918522
 20
174.565032133
 30
0.0
 10
58.7397571942
 20
174.6231932142
 30
0.0
 10
58.6812771328
 20
174.6903770495
 30
0.0
 10
58.5808538349
 20
174.7513221427
 30
0.0
 10
58.4555254761
 20
174.7932811818
 30
0.0
 10
58.3150182677
 20
174.8129896031
 30
0.0
 10
58.1705443212
 20
174.8090201311
 30
0.0
 10
58.0339617945
 20
174.7816791716
 30
0.0
 10
57.9501473313
 20
174.7471071485
 30
0.0
 10
57.9131368139
 20
174.7257392438
 30
0.0
  0
SPLINE
  5
2D7
100
AcDbEntity
  8
0
100
AcDbSpline
 62
7
  6
CONTINUOUS
 70
0
 71
3
 72
16
 73
12
 74
0
 42
0.0000001
 43
0.0000001
 44
0.0000000001
 40
0.0
 40
0.0
 40
0.0
 40
0.0
 40
0.0428749215
 40
0.0875218052
 40
0.1869210508
 40
0.3042319763
 40
0.4379526978
 40
0.5823548967
 40
0.7295670544
 40
0.8712583699
 40
1.0
 40
1.0
 40
1.0
 40
1.0
 10
64.6908374912
 20
176.9969023652
 30
0.0
 10
64.6908377507
 20
177.0111347675
 30
0.0
 10
64.6870582277
 20
177.040315644
 30
0.0
 10
64.6639235697
 20
177.0984767252
 30
0.0
 10
64.6054435083
 20
177.1656605604
 30
0.0
 10
64.5050202104
 20
177.2266056536
 30
0.0
 10
64.3796918517
 20
177.2685646928
 30
0.0
 10
64.2391846433
 20
177.2882731141
 30
0.0
 10
64.0947106967
 20
177.284303642
 30
0.0
 10
63.95812817
 20
177.2569626825
 30
0.0
 10
63.8743137068
 20
177.2223906594
 30
0.0
 10
63.8373031894
 20
177.2010227548
 30
0.0
  0
SPLINE
  5
2D8
100
AcDbEntity
  8
0
100
AcDbSpline
 62
7
  6
CONTINUOUS
 70
0
 71
3
 72
23
 73
19
 74
0
 42
0.0000001
 43
0.0000001
 44
0.0000000001
 40
0.0
 40
0.0
 40
0.0
 40
0.0
 40
0.0599469372
 40
0.1233554174
 40
0.1897060305
 40
0.2583650725
 40
0.3286040903
 40
0.3996394502
 40
0.470658221
 40
0.5408486164
 40
0.6094279658
 40
0.6756723562
 40
0.7389483368
 40
0.7987486921
 40
0.8547341265
 40
0.906782358
 40
0.9550442942
 40
1.0
 40
1.0
 40
1.0
 40
1.0
 10
71.7384421571
 20
182.3964598162
 30
0.0
 10
71.3792169449
 20
182.6038538973
 30
0.0
 10
70.6146704032
 20
182.9876758474
 30
0.0
 10
69.3869249082
 20
183.4572067906
 30
0.0
 10
68.0638575454
 20
183.8303777781
 30
0.0
 10
66.6680932827
 20
184.1008668126
 30
0.0
 10
65.2232235347
 20
184.2641067575
 30
0.0
 10
63.7538493924
 20
184.3173372557
 30
0.0
 10
62.2849781584
 20
184.2596445881
 30
0.0
 10
60.8416209713
 20
184.0920144223
 30
0.0
 10
59.4483208585
 20
183.8172909172
 30
0.0
 10
58.1287155434
 20
183.4401126083
 30
0.0
 10
56.9051162559
 20
182.9667948707
 30
0.0
 10
55.7981152435
 20
182.4051266862
 30
0.0
 10
54.8263034271
 20
181.7642035479
 30
0.0
 10
54.0060143297
 20
181.053855796
 30
0.0
 10
53.3517242462
 20
180.2853160604
 30
0.0
 10
53.0245292794
 20
179.7240642566
 30
0.0
 10
52.8966218867
 20
179.4405130108
 30
0.0
  0
SPLINE
  5
2D9
100
AcDbEntity
  8
0
100
AcDbSpline
 62
7
  6
CONTINUOUS
 70
0
 71
3
 72
14
 73
10
 74
0
 42
0.0000001
 43
0.0000001
 44
0.0000000001
 40
0.0
 40
0.0
 40
0.0
 40
0.0
 40
0.2892820218
 40
0.4225404569
 40
0.548498011
 40
0.6678964344
 40
0.7818698289
 40
0.8919530438
 40
1.0
 40
1.0
 40
1.0
 40
1.0
 10
57.066037535
 20
173.9253936233
 30
0.0
 10
56.6490251394
 20
174.1661503955
 30
0.0
 10
56.0650296052
 20
174.56822728
 30
0.0
 10
55.404312122
 20
175.2005775709
 30
0.0
 10
55.0021910342
 20
175.6880121954
 30
0.0
 10
54.6842852491
 20
176.1968793682
 30
0.0
 10
54.4541600575
 20
176.7226758847
 30
0.0
 10
54.3147862005
 20
177.2600497474
 30
0.0
 10
54.2835260293
 20
177.6238645103
 30
0.0
 10
54.283534351
 20
177.8037130719
 30
0.0
  0
SPLINE
  5
2DA
100
AcDbEntity
  8
0
100
AcDbSpline
 62
7
  6
CONTINUOUS
 70
0
 71
3
 72
16
 73
12
 74
0
 42
0.0000001
 43
0.0000001
 44
0.0000000001
 40
0.0
 40
0.0
 40
0.0
 40
0.0
 40
0.0428749215
 40
0.0875218052
 40
0.1869210508
 40
0.3042319763
 40
0.4379526978
 40
0.5823548967
 40
0.7295670544
 40
0.8712583699
 40
1.0
 40
1.0
 40
1.0
 40
1.0
 10
63.7270338345
 20
174.9201892108
 30
0.0
 10
63.7270340939
 20
174.9344216131
 30
0.0
 10
63.723254571
 20
174.9636024895
 30
0.0
 10
63.700119913
 20
175.0217635708
 30
0.0
 10
63.6416398516
 20
175.088947406
 30
0.0
 10
63.5412165537
 20
175.1498924992
 30
0.0
 10
63.4158881949
 20
175.1918515383
 30
0.0
 10
63.2753809866
 20
175.2115599596
 30
0.0
 10
63.13090704
 20
175.2075904876
 30
0.0
 10
62.9943245133
 20
175.1802495281
 30
0.0
 10
62.9105100501
 20
175.145677505
 30
0.0
 10
62.8734995327
 20
175.1243096003
 30
0.0
  0
SPLINE
  5
2DB
100
AcDbEntity
  8
0
100
AcDbSpline
 62
7
  6
CONTINUOUS
 70
0
 71
3
 72
16
 73
12
 74
0
 42
0.0000001
 43
0.0000001
 44
0.0000000001
 40
0.0
 40
0.0
 40
0.0
 40
0.0
 40
0.0428749215
 40
0.0875218052
 40
0.1869210508
 40
0.3042319763
 40
0.4379526978
 40
0.5823548967
 40
0.7295670544
 40
0.8712583699
 40
1.0
 40
1.0
 40
1.0
 40
1.0
 10
62.7632301777
 20
172.8434760564
 30
0.0
 10
62.7632304372
 20
172.8577084586
 30
0.0
 10
62.7594509142
 20
172.8868893351
 30
0.0
 10
62.7363162562
 20
172.9450504163
 30
0.0
 10
62.6778361948
 20
173.0122342516
 30
0.0
 10
62.5774128969
 20
173.0731793448
 30
0.0
 10
62.4520845382
 20
173.1151383839
 30
0.0
 10
62.3115773298
 20
173.1348468052
 30
0.0
 10
62.1671033832
 20
173.1308773332
 30
0.0
 10
62.0305208565
 20
173.1035363737
 30
0.0
 10
61.9467063933
 20
173.0689643506
 30
0.0
 10
61.9096958759
 20
173.0475964459
 30
0.0
  0
SPLINE
  5
2DC
100
AcDbEntity
  8
0
100
AcDbSpline
 62
7
  6
CONTINUOUS
 70
0
 71
3
 72
16
 73
12
 74
0
 42
0.0000001
 43
0.0000001
 44
0.0000000001
 40
0.0
 40
0.0
 40
0.0
 40
0.0
 40
0.0428749215
 40
0.0875218052
 40
0.1869210508
 40
0.3042319763
 40
0.4379526978
 40
0.5823548967
 40
0.7295670544
 40
0.8712583699
 40
1.0
 40
1.0
 40
1.0
 40
1.0
 10
67.3240499278
 20
175.4766508488
 30
0.0
 10
67.3240501872
 20
175.4908832511
 30
0.0
 10
67.3202706643
 20
175.5200641276
 30
0.0
 10
67.2971360063
 20
175.5782252088
 30
0.0
 10
67.2386559448
 20
175.645409044
 30
0.0
 10
67.138232647
 20
175.7063541373
 30
0.0
 10
67.0129042882
 20
175.7483131764
 30
0.0
 10
66.8723970798
 20
175.7680215977
 30
0.0
 10
66.7279231333
 20
175.7640521257
 30
0.0
 10
66.5913406066
 20
175.7367111661
 30
0.0
 10
66.5075261434
 20
175.702139143
 30
0.0
 10
66.4705156259
 20
175.6807712384
 30
0.0
  0
SPLINE
  5
2DD
100
AcDbEntity
  8
0
100
AcDbSpline
 62
7
  6
CONTINUOUS
 70
0
 71
3
 72
16
 73
12
 74
0
 42
0.0000001
 43
0.0000001
 44
0.0000000001
 40
0.0
 40
0.0
 40
0.0
 40
0.0
 40
0.0428749215
 40
0.0875218052
 40
0.1869210508
 40
0.3042319763
 40
0.4379526978
 40
0.5823548967
 40
0.7295670544
 40
0.8712583699
 40
1.0
 40
1.0
 40
1.0
 40
1.0
 10
66.360246271
 20
173.3999376944
 30
0.0
 10
66.3602465304
 20
173.4141700967
 30
0.0
 10
66.3564670075
 20
173.4433509732
 30
0.0
 10
66.3333323495
 20
173.5015120544
 30
0.0
 10
66.2748522881
 20
173.5686958896
 30
0.0
 10
66.1744289902
 20
173.6296409828
 30
0.0
 10
66.0491006314
 20
173.671600022
 30
0.0
 10
65.9085934231
 20
173.6913084433
 30
0.0
 10
65.7641194765
 20
173.6873389712
 30
0.0
 10
65.6275369498
 20
173.6599980117
 30
0.0
 10
65.5437224866
 20
173.6254259886
 30
0.0
 10
65.5067119692
 20
173.6040580839
 30
0.0
  0
SPLINE
  5
2DE
100
AcDbEntity
  8
0
100
AcDbSpline
 62
7
  6
CONTINUOUS
 70
0
 71
3
 72
16
 73
12
 74
0
 42
0.0000001
 43
0.0000001
 44
0.0000000001
 40
0.0
 40
0.0
 40
0.0
 40
0.0
 40
0.0428749215
 40
0.0875218052
 40
0.1869210508
 40
0.3042319763
 40
0.4379526978
 40
0.5823548967
 40
0.7295670544
 40
0.8712583699
 40
1.0
 40
1.0
 40
1.0
 40
1.0
 10
69.9418013755
 20
174.0584222698
 30
0.0
 10
69.9418016349
 20
174.0726546721
 30
0.0
 10
69.938022112
 20
174.1018355486
 30
0.0
 10
69.914887454
 20
174.1599966298
 30
0.0
 10
69.8564073925
 20
174.227180465
 30
0.0
 10
69.7559840947
 20
174.2881255583
 30
0.0
 10
69.6306557359
 20
174.3300845974
 30
0.0
 10
69.4901485275
 20
174.3497930187
 30
0.0
 10
69.345674581
 20
174.3458235467
 30
0.0
 10
69.2090920543
 20
174.3184825872
 30
0.0
 10
69.1252775911
 20
174.283910564
 30
0.0
 10
69.0882670736
 20
174.2625426594
 30
0.0
  0
SPLINE
  5
2DF
100
AcDbEntity
  8
0
100
AcDbSpline
 62
7
  6
CONTINUOUS
 70
0
 71
3
 72
11
 73
7
 74
0
 42
0.0000001
 43
0.0000001
 44
0.0000000001
 40
0.0
 40
0.0
 40
0.0
 40
0.0
 40
0.2895468475
 40
0.5491384346
 40
0.782278826
 40
1.0
 40
1.0
 40
1.0
 40
1.0
 10
69.0882670736
 20
174.2625426594
 30
0.0
 10
69.0663400296
 20
174.2498831502
 30
0.0
 10
69.0265492096
 20
174.2224459795
 30
0.0
 10
68.9789507132
 20
174.1724760188
 30
0.0
 10
68.9488431756
 20
174.1171546255
 30
0.0
 10
68.941842844
 20
174.0774607027
 30
0.0
 10
68.941842497
 20
174.0584222944
 30
0.0
  0
SPLINE
  5
2E0
100
AcDbEntity
  8
0
100
AcDbSpline
 62
7
  6
CONTINUOUS
 70
0
 71
3
 72
11
 73
7
 74
0
 42
0.0000001
 43
0.0000001
 44
0.0000000001
 40
0.0
 40
0.0
 40
0.0
 40
0.0
 40
0.2895468475
 40
0.5491384346
 40
0.782278826
 40
1.0
 40
1.0
 40
1.0
 40
1.0
 10
65.5067119692
 20
173.6040580839
 30
0.0
 10
65.4847849252
 20
173.5913985747
 30
0.0
 10
65.4449941052
 20
173.563961404
 30
0.0
 10
65.3973956087
 20
173.5139914434
 30
0.0
 10
65.3672880711
 20
173.4586700501
 30
0.0
 10
65.3602877396
 20
173.4189761272
 30
0.0
 10
65.3602873925
 20
173.399937719
 30
0.0
  0
SPLINE
  5
2E1
100
AcDbEntity
  8
0
100
AcDbSpline
 62
7
  6
CONTINUOUS
 70
0
 71
3
 72
11
 73
7
 74
0
 42
0.0000001
 43
0.0000001
 44
0.0000000001
 40
0.0
 40
0.0
 40
0.0
 40
0.0
 40
0.2895468475
 40
0.5491384346
 40
0.782278826
 40
1.0
 40
1.0
 40
1.0
 40
1.0
 10
66.4705156259
 20
175.6807712384
 30
0.0
 10
66.4485885819
 20
175.6681117292
 30
0.0
 10
66.4087977619
 20
175.6406745585
 30
0.0
 10
66.3611992655
 20
175.5907045978
 30
0.0
 10
66.3310917279
 20
175.5353832045
 30
0.0
 10
66.3240913963
 20
175.4956892816
 30
0.0
 10
66.3240910493
 20
175.4766508734
 30
0.0
  0
SPLINE
  5
2E2
100
AcDbEntity
  8
0
100
AcDbSpline
 62
7
  6
CONTINUOUS
 70
0
 71
3
 72
11
 73
7
 74
0
 42
0.0000001
 43
0.0000001
 44
0.0000000001
 40
0.0
 40
0.0
 40
0.0
 40
0.0
 40
0.2895468475
 40
0.5491384346
 40
0.782278826
 40
1.0
 40
1.0
 40
1.0
 40
1.0
 10
61.9096958759
 20
173.0475964459
 30
0.0
 10
61.8877688319
 20
173.0349369367
 30
0.0
 10
61.8479780119
 20
173.007499766
 30
0.0
 10
61.8003795154
 20
172.9575298053
 30
0.0
 10
61.7702719779
 20
172.9022084121
 30
0.0
 10
61.7632716463
 20
172.8625144892
 30
0.0
 10
61.7632712992
 20
172.8434760809
 30
0.0
  0
SPLINE
  5
2E3
100
AcDbEntity
  8
0
100
AcDbSpline
 62
7
  6
CONTINUOUS
 70
0
 71
3
 72
11
 73
7
 74
0
 42
0.0000001
 43
0.0000001
 44
0.0000000001
 40
0.0
 40
0.0
 40
0.0
 40
0.0
 40
0.2895468475
 40
0.5491384346
 40
0.782278826
 40
1.0
 40
1.0
 40
1.0
 40
1.0
 10
62.8734995327
 20
175.1243096003
 30
0.0
 10
62.8515724886
 20
175.1116500911
 30
0.0
 10
62.8117816686
 20
175.0842129204
 30
0.0
 10
62.7641831722
 20
175.0342429597
 30
0.0
 10
62.7340756346
 20
174.9789215665
 30
0.0
 10
62.727075303
 20
174.9392276436
 30
0.0
 10
62.727074956
 20
174.9201892354
 30
0.0
  0
SPLINE
  5
2E4
100
AcDbEntity
  8
0
100
AcDbSpline
 62
7
  6
CONTINUOUS
 70
0
 71
3
 72
11
 73
7
 74
0
 42
0.0000001
 43
0.0000001
 44
0.0000000001
 40
0.0
 40
0.0
 40
0.0
 40
0.0
 40
0.2895468475
 40
0.5491384346
 40
0.782278826
 40
1.0
 40
1.0
 40
1.0
 40
1.0
 10
63.8373031894
 20
177.2010227548
 30
0.0
 10
63.8153761454
 20
177.1883632456
 30
0.0
 10
63.7755853254
 20
177.1609260748
 30
0.0
 10
63.7279868289
 20
177.1109561142
 30
0.0
 10
63.6978792914
 20
177.0556347209
 30
0.0
 10
63.6908789598
 20
177.015940798
 30
0.0
 10
63.6908786127
 20
176.9969023898
 30
0.0
  0
SPLINE
  5
2E5
100
AcDbEntity
  8
0
100
AcDbSpline
 62
7
  6
CONTINUOUS
 70
0
 71
3
 72
11
 73
7
 74
0
 42
0.0000001
 43
0.0000001
 44
0.0000000001
 40
0.0
 40
0.0
 40
0.0
 40
0.0
 40
0.2895468475
 40
0.5491384346
 40
0.782278826
 40
1.0
 40
1.0
 40
1.0
 40
1.0
 10
57.9131368139
 20
174.7257392438
 30
0.0
 10
57.8912097698
 20
174.7130797346
 30
0.0
 10
57.8514189498
 20
174.6856425639
 30
0.0
 10
57.8038204534
 20
174.6356726032
 30
0.0
 10
57.7737129158
 20
174.58035121
 30
0.0
 10
57.7667125842
 20
174.5406572871
 30
0.0
 10
57.7667122372
 20
174.5216188788
 30
0.0
  0
SPLINE
  5
2E6
100
AcDbEntity
  8
0
100
AcDbSpline
 62
7
  6
CONTINUOUS
 70
0
 71
3
 72
11
 73
7
 74
0
 42
0.0000001
 43
0.0000001
 44
0.0000000001
 40
0.0
 40
0.0
 40
0.0
 40
0.0
 40
0.2895468475
 40
0.5491384346
 40
0.782278826
 40
1.0
 40
1.0
 40
1.0
 40
1.0
 10
60.0949809967
 20
176.5858192641
 30
0.0
 10
60.0730539526
 20
176.5731597549
 30
0.0
 10
60.0332631326
 20
176.5457225842
 30
0.0
 10
59.9856646362
 20
176.4957526235
 30
0.0
 10
59.9555570986
 20
176.4404312303
 30
0.0
 10
59.948556767
 20
176.4007373074
 30
0.0
 10
59.94855642
 20
176.3816988991
 30
0.0
  0
SPLINE
  5
2E7
100
AcDbEntity
  8
0
100
AcDbSpline
 62
7
  6
CONTINUOUS
 70
0
 71
3
 72
16
 73
12
 74
0
 42
0.0000001
 43
0.0000001
 44
0.0000000001
 40
0.0
 40
0.0
 40
0.0
 40
0.0
 40
0.0428749215
 40
0.0875218052
 40
0.1869210508
 40
0.3042319763
 40
0.4379526978
 40
0.5823548967
 40
0.7295670544
 40
0.8712583699
 40
1.0
 40
1.0
 40
1.0
 40
1.0
 10
60.9485152985
 20
176.3816988746
 30
0.0
 10
60.9485155579
 20
176.3959312769
 30
0.0
 10
60.944736035
 20
176.4251121533
 30
0.0
 10
60.921601377
 20
176.4832732345
 30
0.0
 10
60.8631213156
 20
176.5504570698
 30
0.0
 10
60.7626980177
 20
176.611402163
 30
0.0
 10
60.6373696589
 20
176.6533612021
 30
0.0
 10
60.4968624506
 20
176.6730696234
 30
0.0
 10
60.352388504
 20
176.6691001514
 30
0.0
 10
60.2158059773
 20
176.6417591919
 30
0.0
 10
60.1319915141
 20
176.6071871688
 30
0.0
 10
60.0949809967
 20
176.5858192641
 30
0.0
  0
SPLINE
  5
2E8
100
AcDbEntity
  8
0
100
AcDbSpline
 62
7
  6
CONTINUOUS
 70
0
 71
3
 72
25
 73
21
 74
0
 42
0.0000001
 43
0.0000001
 44
0.0000000001
 40
0.0
 40
0.0
 40
0.0
 40
0.0
 40
0.0213318477
 40
0.0428920187
 40
0.0648971757
 40
0.0875415864
 40
0.1353161953
 40
0.1872167107
 40
0.2436541118
 40
0.3046018607
 40
0.3696895772
 40
0.4382869046
 40
0.5095734718
 40
0.5825978776
 40
0.6563296199
 40
0.7297069555
 40
0.8016837189
 40
0.8712768038
 40
0.9376163949
 40
1.0
 40
1.0
 40
1.0
 40
1.0
 10
73.283513626
 20
177.8037130983
 30
0.0
 10
73.2835073902
 20
177.6689453302
 30
0.0
 10
73.2661204577
 20
177.3976548466
 30
0.0
 10
73.1881797223
 20
176.9941016204
 30
0.0
 10
73.0588732001
 20
176.5952104553
 30
0.0
 10
72.8149721907
 20
176.0634356836
 30
0.0
 10
72.3772743374
 20
175.4193633109
 30
0.0
 10
71.6780749974
 20
174.7173575328
 30
0.0
 10
70.8115599516
 20
174.0841355259
 30
0.0
 10
69.7963022597
 20
173.5319586727
 30
0.0
 10
68.6535277631
 20
173.0715682438
 30
0.0
 10
67.4072568798
 20
172.7123932273
 30
0.0
 10
66.083832894
 20
172.4619146114
 30
0.0
 10
64.7113714768
 20
172.3254267593
 30
0.0
 10
63.3191179137
 20
172.3058316114
 30
0.0
 10
61.9367662518
 20
172.4035481403
 30
0.0
 10
60.5938086868
 20
172.6164894174
 30
0.0
 10
59.3187313274
 20
172.9401789006
 30
0.0
 10
58.1388070689
 20
173.3676973226
 30
0.0
 10
57.4073570501
 20
173.7283371674
 30
0.0
 10
57.066037535
 20
173.9253936233
 30
0.0
  0
SPLINE
  5
2E9
100
AcDbEntity
  8
0
100
AcDbSpline
 62
7
  6
CONTINUOUS
 70
0
 71
3
 72
15
 73
11
 74
0
 42
0.0000001
 43
0.0000001
 44
0.0000000001
 40
0.0
 40
0.0
 40
0.0
 40
0.0
 40
0.1080116411
 40
0.2180598625
 40
0.3319964451
 40
0.4513553072
 40
0.5772748718
 40
0.7104903774
 40
0.8514141426
 40
1.0
 40
1.0
 40
1.0
 40
1.0
 10
75.0335082765
 20
177.8037130864
 30
0.0
 10
75.0335088217
 20
178.0166904751
 30
0.0
 10
74.9965274403
 20
178.4475256787
 30
0.0
 10
74.8314474895
 20
179.0838847672
 30
0.0
 10
74.5589394176
 20
179.7065321896
 30
0.0
 10
74.1824754471
 20
180.3091646319
 30
0.0
 10
73.7063046075
 20
180.8863240233
 30
0.0
 10
73.1352720789
 20
181.4329065674
 30
0.0
 10
72.475078485
 20
181.9438907747
 30
0.0
 10
71.9921731364
 20
182.249971481
 30
0.0
 10
71.7384421571
 20
182.3964598162
 30
0.0
  0
SPLINE
  5
2EA
100
AcDbEntity
  8
0
100
AcDbSpline
 62
7
  6
CONTINUOUS
 70
0
 71
3
 72
9
 73
5
 74
0
 42
0.0000001
 43
0.0000001
 44
0.0000000001
 40
0.0
 40
0.0
 40
0.0
 40
0.0
 40
0.4949330054
 40
1.0
 40
1.0
 40
1.0
 40
1.0
 10
75.2835079591
 20
175.3542058351
 30
0.0
 10
75.2835085269
 20
175.5813437266
 30
0.0
 10
75.2423278544
 20
176.0411623483
 30
0.0
 10
75.1216187071
 20
176.4864831819
 30
0.0
 10
75.043150392
 20
176.7045856828
 30
0.0
  0
SPLINE
  5
2EB
100
AcDbEntity
  8
0
100
AcDbSpline
 62
7
  6
CONTINUOUS
 70
0
 71
3
 72
9
 73
5
 74
0
 42
0.0000001
 43
0.0000001
 44
0.0000000001
 40
0.0
 40
0.0
 40
0.0
 40
0.0
 40
0.4951361836
 40
1.0
 40
1.0
 40
1.0
 40
1.0
 10
75.5335076361
 20
167.1891816639
 30
0.0
 10
75.5335081997
 20
167.4163711119
 30
0.0
 10
75.4932213958
 20
167.8760698252
 30
0.0
 10
75.3749996048
 20
168.3218731799
 30
0.0
 10
75.2980802675
 20
168.5403828608
 30
0.0
  0
SPLINE
  5
2EC
100
AcDbEntity
  8
0
100
AcDbSpline
 62
7
  6
CONTINUOUS
 70
0
 71
3
 72
25
 73
21
 74
0
 42
0.0000001
 43
0.0000001
 44
0.0000000001
 40
0.0
 40
0.0
 40
0.0
 40
0.0
 40
0.0213191555
 40
0.0428441837
 40
0.0647709124
 40
0.0872777717
 40
0.1345620757
 40
0.1856601845
 40
0.2410202953
 40
0.3007008376
 40
0.3644466633
 40
0.4317600746
 40
0.5019610727
 40
0.5742382039
 40
0.6476926309
 40
0.7213783784
 40
0.7943400522
 40
0.8656516476
 40
0.9344529378
 40
1.0
 40
1.0
 40
1.0
 40
1.0
 10
75.5335077773
 20
163.7598715116
 30
0.0
 10
75.5335075909
 20
163.6017254348
 30
0.0
 10
75.5141862803
 20
163.283572745
 30
0.0
 10
75.4274289304
 20
162.8099099836
 30
0.0
 10
75.2835046767
 20
162.3411192286
 30
0.0
 10
75.0121060778
 20
161.7159079802
 30
0.0
 10
74.5247796115
 20
160.9554448755
 30
0.0
 10
73.74256377
 20
160.118577506
 30
0.0
 10
72.7697507606
 20
159.3551432291
 30
0.0
 10
71.6253060026
 20
158.6785037513
 30
0.0
 10
70.3308800276
 20
158.1004983636
 30
0.0
 10
68.9110060571
 20
157.631752342
 30
0.0
 10
67.3927197773
 20
157.2810360238
 30
0.0
 10
65.8050734948
 20
157.0550143546
 30
0.0
 10
64.1785465906
 20
156.9580107088
 30
0.0
 10
62.5444155836
 20
156.9918944628
 30
0.0
 10
60.9341320601
 20
157.1559993857
 30
0.0
 10
59.3785861112
 20
157.447219278
 30
0.0
 10
57.9077936225
 20
157.8598866389
 30
0.0
 10
56.9766285943
 20
158.2208195246
 30
0.0
 10
56.5336756426
 20
158.4213493083
 30
0.0
  0
SPLINE
  5
2ED
100
AcDbEntity
  8
0
100
AcDbSpline
 62
7
  6
CONTINUOUS
 70
0
 71
3
 72
12
 73
8
 74
0
 42
0.0000001
 43
0.0000001
 44
0.0000000001
 40
0.0
 40
0.0
 40
0.0
 40
0.0
 40
0.1153145136
 40
0.2312879234
 40
0.4699433919
 40
0.7244145296
 40
1.0
 40
1.0
 40
1.0
 40
1.0
 10
61.533582279
 20
153.227163666
 30
0.0
 10
61.533582279
 20
153.2765716761
 30
0.0
 10
61.5419789372
 20
153.3758750576
 30
0.0
 10
61.5918863557
 20
153.5717327824
 30
0.0
 10
61.7162599788
 20
153.8058976675
 30
0.0
 10
61.9437461761
 20
154.0480000561
 30
0.0
 10
62.1317489205
 20
154.1782237185
 30
0.0
 10
62.2340077902
 20
154.237262552
 30
0.0
  0
SPLINE
  5
2EE
100
AcDbEntity
  8
0
100
AcDbSpline
 62
7
  6
CONTINUOUS
 70
0
 71
3
 72
17
 73
13
 74
0
 42
0.0000001
 43
0.0000001
 44
0.0000000001
 40
0.0
 40
0.0
 40
0.0
 40
0.0
 40
0.1273229158
 40
0.2655260336
 40
0.4084846382
 40
0.5487696417
 40
0.6796631286
 40
0.7971330466
 40
0.8509919496
 40
0.9022105555
 40
0.9515214527
 40
1.0
 40
1.0
 40
1.0
 40
1.0
 10
62.2340077902
 20
154.237262552
 30
0.0
 10
62.3995096952
 20
154.3328145511
 30
0.0
 10
62.7714893499
 20
154.4866924954
 30
0.0
 10
63.3757958999
 20
154.6066623239
 30
0.0
 10
64.0112682289
 20
154.621951213
 30
0.0
 10
64.6295128421
 20
154.5311115839
 30
0.0
 10
65.184421354
 20
154.3397811085
 30
0.0
 10
65.5735914765
 20
154.0945869837
 30
0.0
 10
65.8066086071
 20
153.853060142
 30
0.0
 10
65.9345157446
 20
153.6579214787
 30
0.0
 10
66.0151306177
 20
153.4473183486
 30
0.0
 10
66.033582279
 20
153.29992736
 30
0.0
 10
66.033582279
 20
153.227163666
 30
0.0
  0
SPLINE
  5
2EF
100
AcDbEntity
  8
0
100
AcDbSpline
 62
7
  6
CONTINUOUS
 70
0
 71
3
 72
12
 73
8
 74
0
 42
0.0000001
 43
0.0000001
 44
0.0000000001
 40
0.0
 40
0.0
 40
0.0
 40
0.0
 40
0.1153145136
 40
0.2312879234
 40
0.4699433919
 40
0.7244145296
 40
1.0
 40
1.0
 40
1.0
 40
1.0
 10
75.5342382559
 20
161.3103979127
 30
0.0
 10
75.5342382559
 20
161.3598059228
 30
0.0
 10
75.5426349141
 20
161.4591093043
 30
0.0
 10
75.5925423326
 20
161.654967029
 30
0.0
 10
75.7169159556
 20
161.8891319141
 30
0.0
 10
75.944402153
 20
162.1312343028
 30
0.0
 10
76.1324048973
 20
162.2614579651
 30
0.0
 10
76.234663767
 20
162.3204967987
 30
0.0
  0
SPLINE
  5
2F0
100
AcDbEntity
  8
0
100
AcDbSpline
 62
7
  6
CONTINUOUS
 70
0
 71
3
 72
17
 73
13
 74
0
 42
0.0000001
 43
0.0000001
 44
0.0000000001
 40
0.0
 40
0.0
 40
0.0
 40
0.0
 40
0.1273229158
 40
0.2655260336
 40
0.4084846382
 40
0.5487696417
 40
0.6796631286
 40
0.7971330466
 40
0.8509919496
 40
0.9022105555
 40
0.9515214527
 40
1.0
 40
1.0
 40
1.0
 40
1.0
 10
76.234663767
 20
162.3204967987
 30
0.0
 10
76.400165672
 20
162.4160487977
 30
0.0
 10
76.7721453268
 20
162.5699267421
 30
0.0
 10
77.3764518768
 20
162.6898965706
 30
0.0
 10
78.0119242057
 20
162.7051854597
 30
0.0
 10
78.630168819
 20
162.6143458305
 30
0.0
 10
79.1850773309
 20
162.4230153551
 30
0.0
 10
79.5742474533
 20
162.1778212303
 30
0.0
 10
79.8072645839
 20
161.9362943887
 30
0.0
 10
79.9351717214
 20
161.7411557254
 30
0.0
 10
80.0157865946
 20
161.5305525952
 30
0.0
 10
80.0342382559
 20
161.3831616067
 30
0.0
 10
80.0342382559
 20
161.3103979127
 30
0.0
  0
SPLINE
  5
2F1
100
AcDbEntity
  8
0
100
AcDbSpline
 62
7
  6
CONTINUOUS
 70
0
 71
3
 72
25
 73
21
 74
0
 42
0.0000001
 43
0.0000001
 44
0.0000000001
 40
0.0
 40
0.0
 40
0.0
 40
0.0
 40
0.0623840337
 40
0.1287222325
 40
0.1983153947
 40
0.2702918463
 40
0.3436694053
 40
0.4174013537
 40
0.4904259236
 40
0.5617125652
 40
0.6303099852
 40
0.6953978184
 40
0.7563456452
 40
0.8127831048
 40
0.8646836934
 40
0.9124583687
 40
0.9351030122
 40
0.9571080029
 40
0.9786682601
 40
1.0
 40
1.0
 40
1.0
 40
1.0
 10
55.6518298605
 20
170.6593980642
 30
0.0
 10
56.0650089283
 20
170.4208544148
 30
0.0
 10
56.9504402075
 20
169.9842900106
 30
0.0
 10
58.3787658064
 20
169.4667780041
 30
0.0
 10
59.9222656627
 20
169.0749365388
 30
0.0
 10
61.5479517009
 20
168.8171689254
 30
0.0
 10
63.2213250672
 20
168.6988757747
 30
0.0
 10
64.9066892014
 20
168.7225961278
 30
0.0
 10
66.5680932594
 20
168.8878170338
 30
0.0
 10
68.1701353392
 20
169.1910278466
 30
0.0
 10
69.6787812838
 20
169.625818489
 30
0.0
 10
71.0621418884
 20
170.1831335249
 30
0.0
 10
72.2911405129
 20
170.8515583644
 30
0.0
 10
73.340079129
 20
171.618091772
 30
0.0
 10
74.1864863005
 20
172.4678863497
 30
0.0
 10
74.7163134522
 20
173.2475631473
 30
0.0
 10
75.0115982801
 20
173.8912767528
 30
0.0
 10
75.1680931263
 20
174.3741568683
 30
0.0
 10
75.2624749399
 20
174.8626599874
 30
0.0
 10
75.2835075514
 20
175.1910667397
 30
0.0
 10
75.2835079591
 20
175.3542058351
 30
0.0
  0
SPLINE
  5
2F2
100
AcDbEntity
  8
0
100
AcDbSpline
 62
7
  6
CONTINUOUS
 70
0
 71
3
 72
9
 73
5
 74
0
 42
0.0000001
 43
0.0000001
 44
0.0000000001
 40
0.0
 40
0.0
 40
0.0
 40
0.0
 40
0.2613160129
 40
1.0
 40
1.0
 40
1.0
 40
1.0
 10
55.8286058198
 20
170.7614591027
 30
0.0
 10
55.6848746951
 20
170.8444404289
 30
0.0
 10
55.142505848
 20
171.1748206271
 30
0.0
 10
54.6314705899
 20
171.5585643067
 30
0.0
 10
54.284463974
 20
171.8742964558
 30
0.0
  0
SPLINE
  5
2F3
100
AcDbEntity
  8
0
100
AcDbSpline
 62
7
  6
CONTINUOUS
 70
0
 71
3
 72
16
 73
12
 74
0
 42
0.0000001
 43
0.0000001
 44
0.0000000001
 40
0.0
 40
0.0
 40
0.0
 40
0.0
 40
0.0428749215
 40
0.0875218052
 40
0.1869210508
 40
0.3042319763
 40
0.4379526978
 40
0.5823548967
 40
0.7295670544
 40
0.8712583699
 40
1.0
 40
1.0
 40
1.0
 40
1.0
 10
68.941842497
 20
174.0584222944
 30
0.0
 10
68.9418422375
 20
174.0441898921
 30
0.0
 10
68.9456217605
 20
174.0150090157
 30
0.0
 10
68.9687564185
 20
173.9568479344
 30
0.0
 10
69.0272364799
 20
173.8896640992
 30
0.0
 10
69.1276597778
 20
173.828719006
 30
0.0
 10
69.2529881365
 20
173.7867599669
 30
0.0
 10
69.3934953449
 20
173.7670515456
 30
0.0
 10
69.5379692915
 20
173.7710210176
 30
0.0
 10
69.6745518182
 20
173.7983619771
 30
0.0
 10
69.7583662814
 20
173.8329340002
 30
0.0
 10
69.7953767988
 20
173.8543019049
 30
0.0
  0
SPLINE
  5
2F4
100
AcDbEntity
  8
0
100
AcDbSpline
 62
7
  6
CONTINUOUS
 70
0
 71
3
 72
16
 73
12
 74
0
 42
0.0000001
 43
0.0000001
 44
0.0000000001
 40
0.0
 40
0.0
 40
0.0
 40
0.0
 40
0.0428749215
 40
0.0875218052
 40
0.1869210508
 40
0.3042319763
 40
0.4379526978
 40
0.5823548967
 40
0.7295670544
 40
0.8712583699
 40
1.0
 40
1.0
 40
1.0
 40
1.0
 10
57.7667122372
 20
174.5216188788
 30
0.0
 10
57.7667119778
 20
174.5073864766
 30
0.0
 10
57.7704915007
 20
174.4782056001
 30
0.0
 10
57.7936261587
 20
174.4200445189
 30
0.0
 10
57.8521062201
 20
174.3528606836
 30
0.0
 10
57.952529518
 20
174.2919155904
 30
0.0
 10
58.0778578768
 20
174.2499565513
 30
0.0
 10
58.2183650851
 20
174.23024813
 30
0.0
 10
58.3628390317
 20
174.234217602
 30
0.0
 10
58.4994215584
 20
174.2615585615
 30
0.0
 10
58.5832360216
 20
174.2961305847
 30
0.0
 10
58.620246539
 20
174.3174984893
 30
0.0
  0
SPLINE
  5
2F5
100
AcDbEntity
  8
0
100
AcDbSpline
 62
7
  6
CONTINUOUS
 70
0
 71
3
 72
15
 73
11
 74
0
 42
0.0000001
 43
0.0000001
 44
0.0000000001
 40
0.0
 40
0.0
 40
0.0
 40
0.0
 40
0.1141543258
 40
0.2373258924
 40
0.3669759246
 40
0.5000005214
 40
0.6330250456
 40
0.762674866
 40
0.8858460989
 40
1.0
 40
1.0
 40
1.0
 40
1.0
 10
62.1925986453
 20
152.3086143198
 30
0.0
 10
62.301514628
 20
152.2457330704
 30
0.0
 10
62.539678736
 20
152.1348301657
 30
0.0
 10
62.9275157741
 20
152.0169521423
 30
0.0
 10
63.3474109434
 20
151.944393886
 30
0.0
 10
63.7835915861
 20
151.9199143477
 30
0.0
 10
64.2197718802
 20
151.9443959562
 30
0.0
 10
64.6396660192
 20
152.0169562063
 30
0.0
 10
65.0275013877
 20
152.1348360733
 30
0.0
 10
65.2656640366
 20
152.2457401675
 30
0.0
 10
65.3745791606
 20
152.3086219683
 30
0.0
  0
SPLINE
  5
2F6
100
AcDbEntity
  8
0
100
AcDbSpline
 62
7
  6
CONTINUOUS
 70
0
 71
3
 72
25
 73
21
 74
0
 42
0.0000001
 43
0.0000001
 44
0.0000000001
 40
0.0
 40
0.0
 40
0.0
 40
0.0
 40
0.0656701394
 40
0.1345663383
 40
0.2059424839
 40
0.278939983
 40
0.3526353352
 40
0.4260768719
 40
0.498323261
 40
0.5684810047
 40
0.6357442107
 40
0.6994383113
 40
0.7590706796
 40
0.814390573
 40
0.8654596394
 40
0.9127273599
 40
0.9352301492
 40
0.9571551281
 40
0.9786800647
 40
1.0
 40
1.0
 40
1.0
 40
1.0
 10
56.5789604327
 20
161.8302613298
 30
0.0
 10
57.0225095768
 20
161.6314757244
 30
0.0
 10
57.954308904
 20
161.2739483699
 30
0.0
 10
59.42500956
 20
160.865897755
 30
0.0
 10
60.9792234208
 20
160.5789763236
 30
0.0
 10
62.5870792485
 20
160.4187405887
 30
0.0
 10
64.2178659066
 20
160.3882142789
 30
0.0
 10
65.8403276533
 20
160.4879951519
 30
0.0
 10
67.4233999433
 20
160.7161691031
 30
0.0
 10
68.936823694
 20
161.0683903899
 30
0.0
 10
70.3517664798
 20
161.5379953147
 30
0.0
 10
71.6414033918
 20
162.1162365698
 30
0.0
 10
72.781396544
 20
162.7925319347
 30
0.0
 10
73.7502693056
 20
163.5550998745
 30
0.0
 10
74.5292072196
 20
164.3906499211
 30
0.0
 10
75.0143996364
 20
165.1496273311
 30
0.0
 10
75.2846021637
 20
165.7735154692
 30
0.0
 10
75.427896288
 20
166.2413059851
 30
0.0
 10
75.5142715361
 20
166.7139350235
 30
0.0
 10
75.5335072447
 20
167.0313822862
 30
0.0
 10
75.5335076361
 20
167.1891816639
 30
0.0
  0
SPLINE
  5
2F7
100
AcDbEntity
  8
0
100
AcDbSpline
 62
7
  6
CONTINUOUS
 70
0
 71
3
 72
11
 73
7
 74
0
 42
0.0000001
 43
0.0000001
 44
0.0000000001
 40
0.0
 40
0.0
 40
0.0
 40
0.0
 40
0.2898002934
 40
0.5490499699
 40
0.7822286378
 40
1.0
 40
1.0
 40
1.0
 40
1.0
 10
65.3745791606
 20
152.3086219683
 30
0.0
 10
65.4733403849
 20
152.3656414474
 30
0.0
 10
65.6524870301
 20
152.4889570578
 30
0.0
 10
65.8664863117
 20
152.7140019306
 30
0.0
 10
66.0019520957
 20
152.9628155729
 30
0.0
 10
66.0335822771
 20
153.1414683406
 30
0.0
 10
66.033582279
 20
153.227163666
 30
0.0
  0
SPLINE
  5
2F8
100
AcDbEntity
  8
0
100
AcDbSpline
 62
7
  6
CONTINUOUS
 70
0
 71
3
 72
23
 73
19
 74
0
 42
0.0000001
 43
0.0000001
 44
0.0000000001
 40
0.0
 40
0.0
 40
0.0
 40
0.0
 40
0.0589880295
 40
0.1117704149
 40
0.1595283581
 40
0.2046527549
 40
0.2503482078
 40
0.2996326094
 40
0.3544797221
 40
0.4156368576
 40
0.4828427881
 40
0.5551101441
 40
0.6309619486
 40
0.7086182851
 40
0.7861666725
 40
0.8616893581
 40
0.9334557968
 40
1.0
 40
1.0
 40
1.0
 40
1.0
 10
62.2710024438
 20
154.1893176758
 30
0.0
 10
62.1863882547
 20
154.1358946115
 30
0.0
 10
62.0337472728
 20
154.0211531243
 30
0.0
 10
61.8554891686
 20
153.8141667692
 30
0.0
 10
61.7485631958
 20
153.5872575371
 30
0.0
 10
61.7213346984
 20
153.3491342615
 30
0.0
 10
61.7768636007
 20
153.1135292336
 30
0.0
 10
61.9094017022
 20
152.8927795731
 30
0.0
 10
62.1103883706
 20
152.693988834
 30
0.0
 10
62.3714992732
 20
152.5224200819
 30
0.0
 10
62.6834078637
 20
152.3831631027
 30
0.0
 10
63.0350904634
 20
152.2808013267
 30
0.0
 10
63.4139416452
 20
152.2189116185
 30
0.0
 10
63.8062496127
 20
152.1996988842
 30
0.0
 10
64.1977160143
 20
152.2238902248
 30
0.0
 10
64.574176412
 20
152.2905676774
 30
0.0
 10
64.9218194195
 20
152.397359577
 30
0.0
 10
65.1353946905
 20
152.4971277194
 30
0.0
 10
65.2331572156
 20
152.5535706027
 30
0.0
  0
SPLINE
  5
2F9
100
AcDbEntity
  8
0
100
AcDbSpline
 62
7
  6
CONTINUOUS
 70
0
 71
3
 72
23
 73
19
 74
0
 42
0.0000001
 43
0.0000001
 44
0.0000000001
 40
0.0
 40
0.0
 40
0.0
 40
0.0
 40
0.0603733061
 40
0.114395968
 40
0.1629735384
 40
0.2083455066
 40
0.2537162459
 40
0.3022982374
 40
0.3563121172
 40
0.4166911188
 40
0.4832776182
 40
0.5551237859
 40
0.6307490404
 40
0.7083409435
 40
0.7859361269
 40
0.8615590602
 40
0.9334177977
 40
1.0
 40
1.0
 40
1.0
 40
1.0
 10
65.2331572156
 20
152.5535706027
 30
0.0
 10
65.323130938
 20
152.6055166455
 30
0.0
 10
65.4863461941
 20
152.7179009032
 30
0.0
 10
65.6813458796
 20
152.9228581997
 30
0.0
 10
65.8047371899
 20
153.149778675
 30
0.0
 10
65.8474903284
 20
153.3904608519
 30
0.0
 10
65.8047410319
 20
153.63115791
 30
0.0
 10
65.6813418433
 20
153.8580470406
 30
0.0
 10
65.486305555
 20
154.0630602045
 30
0.0
 10
65.2283439679
 20
154.2406949528
 30
0.0
 10
64.9169933496
 20
154.3856548589
 30
0.0
 10
64.5635486835
 20
154.4931009318
 30
0.0
 10
64.181008843
 20
154.5591916471
 30
0.0
 10
63.7835967487
 20
154.581509115
 30
0.0
 10
63.3861989086
 20
154.5591919769
 30
0.0
 10
63.0036057092
 20
154.4931086123
 30
0.0
 10
62.6502428096
 20
154.3856854494
 30
0.0
 10
62.4332341196
 20
154.2846459607
 30
0.0
 10
62.3340073425
 20
154.2273576962
 30
0.0
  0
SPLINE
  5
2FA
100
AcDbEntity
  8
0
100
AcDbSpline
 62
7
  6
CONTINUOUS
 70
0
 71
3
 72
15
 73
11
 74
0
 42
0.0000001
 43
0.0000001
 44
0.0000000001
 40
0.0
 40
0.0
 40
0.0
 40
0.0
 40
0.1141543258
 40
0.2373258924
 40
0.3669759246
 40
0.5000005214
 40
0.6330250456
 40
0.762674866
 40
0.8858460989
 40
1.0
 40
1.0
 40
1.0
 40
1.0
 10
76.1932546221
 20
160.3918485665
 30
0.0
 10
76.3021706049
 20
160.3289673171
 30
0.0
 10
76.5403347129
 20
160.2180644124
 30
0.0
 10
76.928171751
 20
160.100186389
 30
0.0
 10
77.3480669202
 20
160.0276281326
 30
0.0
 10
77.7842475629
 20
160.0031485943
 30
0.0
 10
78.2204278571
 20
160.0276302028
 30
0.0
 10
78.640321996
 20
160.1001904529
 30
0.0
 10
79.0281573646
 20
160.2180703199
 30
0.0
 10
79.2663200134
 20
160.3289744142
 30
0.0
 10
79.3752351374
 20
160.391856215
 30
0.0
  0
SPLINE
  5
2FB
100
AcDbEntity
  8
0
100
AcDbSpline
 62
7
  6
CONTINUOUS
 70
0
 71
3
 72
11
 73
7
 74
0
 42
0.0000001
 43
0.0000001
 44
0.0000000001
 40
0.0
 40
0.0
 40
0.0
 40
0.0
 40
0.2898002934
 40
0.5490499699
 40
0.7822286378
 40
1.0
 40
1.0
 40
1.0
 40
1.0
 10
79.3752351374
 20
160.391856215
 30
0.0
 10
79.4739963617
 20
160.4488756941
 30
0.0
 10
79.6531430069
 20
160.5721913044
 30
0.0
 10
79.8671422886
 20
160.7972361773
 30
0.0
 10
80.0026080726
 20
161.0460498195
 30
0.0
 10
80.034238254
 20
161.2247025873
 30
0.0
 10
80.0342382559
 20
161.3103979127
 30
0.0
  0
SPLINE
  5
2FC
100
AcDbEntity
  8
0
100
AcDbSpline
 62
7
  6
CONTINUOUS
 70
0
 71
3
 72
23
 73
19
 74
0
 42
0.0000001
 43
0.0000001
 44
0.0000000001
 40
0.0
 40
0.0
 40
0.0
 40
0.0
 40
0.0589880295
 40
0.1117704149
 40
0.1595283581
 40
0.2046527549
 40
0.2503482078
 40
0.2996326094
 40
0.3544797221
 40
0.4156368576
 40
0.4828427881
 40
0.5551101441
 40
0.6309619486
 40
0.7086182851
 40
0.7861666725
 40
0.8616893581
 40
0.9334557968
 40
1.0
 40
1.0
 40
1.0
 40
1.0
 10
76.2716584207
 20
162.2725519225
 30
0.0
 10
76.1870442315
 20
162.2191288581
 30
0.0
 10
76.0344032497
 20
162.1043873709
 30
0.0
 10
75.8561451454
 20
161.8974010159
 30
0.0
 10
75.7492191726
 20
161.6704917838
 30
0.0
 10
75.7219906752
 20
161.4323685081
 30
0.0
 10
75.7775195775
 20
161.1967634802
 30
0.0
 10
75.910057679
 20
160.9760138198
 30
0.0
 10
76.1110443474
 20
160.7772230807
 30
0.0
 10
76.37215525
 20
160.6056543285
 30
0.0
 10
76.6840638405
 20
160.4663973493
 30
0.0
 10
77.0357464403
 20
160.3640355734
 30
0.0
 10
77.414597622
 20
160.3021458652
 30
0.0
 10
77.8069055895
 20
160.2829331309
 30
0.0
 10
78.1983719912
 20
160.3071244715
 30
0.0
 10
78.5748323889
 20
160.3738019241
 30
0.0
 10
78.9224753963
 20
160.4805938237
 30
0.0
 10
79.1360506673
 20
160.5803619661
 30
0.0
 10
79.2338131924
 20
160.6368048493
 30
0.0
  0
SPLINE
  5
2FD
100
AcDbEntity
  8
0
100
AcDbSpline
 62
7
  6
CONTINUOUS
 70
0
 71
3
 72
23
 73
19
 74
0
 42
0.0000001
 43
0.0000001
 44
0.0000000001
 40
0.0
 40
0.0
 40
0.0
 40
0.0
 40
0.0603733061
 40
0.114395968
 40
0.1629735384
 40
0.2083455066
 40
0.2537162459
 40
0.3022982374
 40
0.3563121172
 40
0.4166911188
 40
0.4832776182
 40
0.5551237859
 40
0.6307490404
 40
0.7083409435
 40
0.7859361269
 40
0.8615590602
 40
0.9334177977
 40
1.0
 40
1.0
 40
1.0
 40
1.0
 10
79.2338131924
 20
160.6368048493
 30
0.0
 10
79.3237869149
 20
160.6887508921
 30
0.0
 10
79.4870021709
 20
160.8011351498
 30
0.0
 10
79.6820018565
 20
161.0060924464
 30
0.0
 10
79.8053931667
 20
161.2330129217
 30
0.0
 10
79.8481463053
 20
161.4736950986
 30
0.0
 10
79.8053970088
 20
161.7143921567
 30
0.0
 10
79.6819978201
 20
161.9412812873
 30
0.0
 10
79.4869615318
 20
162.1462944512
 30
0.0
 10
79.2289999448
 20
162.3239291994
 30
0.0
 10
78.9176493265
 20
162.4688891055
 30
0.0
 10
78.5642046604
 20
162.5763351785
 30
0.0
 10
78.1816648198
 20
162.6424258937
 30
0.0
 10
77.7842527256
 20
162.6647433617
 30
0.0
 10
77.3868548855
 20
162.6424262236
 30
0.0
 10
77.0042616861
 20
162.5763428589
 30
0.0
 10
76.6508987864
 20
162.4689196961
 30
0.0
 10
76.4338900964
 20
162.3678802074
 30
0.0
 10
76.3346633193
 20
162.3105919429
 30
0.0
  0
SPLINE
  5
2FE
100
AcDbEntity
  8
0
100
AcDbSpline
 62
7
  6
CONTINUOUS
 70
0
 71
3
 72
16
 73
12
 74
0
 42
0.0000001
 43
0.0000001
 44
0.0000000001
 40
0.0
 40
0.0
 40
0.0
 40
0.0
 40
0.0428749215
 40
0.0875218052
 40
0.1869210508
 40
0.3042319763
 40
0.4379526978
 40
0.5823548967
 40
0.7295670544
 40
0.8712583699
 40
1.0
 40
1.0
 40
1.0
 40
1.0
 10
62.727074956
 20
174.9201892354
 30
0.0
 10
62.7270746966
 20
174.9059568331
 30
0.0
 10
62.7308542195
 20
174.8767759566
 30
0.0
 10
62.7539888775
 20
174.8186148754
 30
0.0
 10
62.8124689389
 20
174.7514310402
 30
0.0
 10
62.9128922368
 20
174.6904859469
 30
0.0
 10
63.0382205956
 20
174.6485269078
 30
0.0
 10
63.1787278039
 20
174.6288184865
 30
0.0
 10
63.3232017505
 20
174.6327879585
 30
0.0
 10
63.4597842772
 20
174.660128918
 30
0.0
 10
63.5435987404
 20
174.6947009412
 30
0.0
 10
63.5806092578
 20
174.7160688458
 30
0.0
  0
SPLINE
  5
2FF
100
AcDbEntity
  8
0
100
AcDbSpline
 62
7
  6
CONTINUOUS
 70
0
 71
3
 72
16
 73
12
 74
0
 42
0.0000001
 43
0.0000001
 44
0.0000000001
 40
0.0
 40
0.0
 40
0.0
 40
0.0
 40
0.0428749215
 40
0.0875218052
 40
0.1869210508
 40
0.3042319763
 40
0.4379526978
 40
0.5823548967
 40
0.7295670544
 40
0.8712583699
 40
1.0
 40
1.0
 40
1.0
 40
1.0
 10
63.6908786127
 20
176.9969023898
 30
0.0
 10
63.6908783533
 20
176.9826699875
 30
0.0
 10
63.6946578762
 20
176.953489111
 30
0.0
 10
63.7177925342
 20
176.8953280298
 30
0.0
 10
63.7762725957
 20
176.8281441946
 30
0.0
 10
63.8766958935
 20
176.7671991013
 30
0.0
 10
64.0020242523
 20
176.7252400622
 30
0.0
 10
64.1425314607
 20
176.7055316409
 30
0.0
 10
64.2870054072
 20
176.709501113
 30
0.0
 10
64.4235879339
 20
176.7368420725
 30
0.0
 10
64.5074023971
 20
176.7714140956
 30
0.0
 10
64.5444129146
 20
176.7927820002
 30
0.0
  0
SPLINE
  5
300
100
AcDbEntity
  8
0
100
AcDbSpline
 62
7
  6
CONTINUOUS
 70
0
 71
3
 72
11
 73
7
 74
0
 42
0.0000001
 43
0.0000001
 44
0.0000000001
 40
0.0
 40
0.0
 40
0.0
 40
0.0
 40
0.2895468475
 40
0.5491384346
 40
0.782278826
 40
1.0
 40
1.0
 40
1.0
 40
1.0
 10
69.7953767988
 20
173.8543019049
 30
0.0
 10
69.8173038428
 20
173.8669614141
 30
0.0
 10
69.8570946628
 20
173.8943985848
 30
0.0
 10
69.9046931593
 20
173.9443685455
 30
0.0
 10
69.9348006968
 20
173.9996899387
 30
0.0
 10
69.9418010284
 20
174.0393838616
 30
0.0
 10
69.9418013755
 20
174.0584222698
 30
0.0
  0
SPLINE
  5
301
100
AcDbEntity
  8
0
100
AcDbSpline
 62
7
  6
CONTINUOUS
 70
0
 71
3
 72
11
 73
7
 74
0
 42
0.0000001
 43
0.0000001
 44
0.0000000001
 40
0.0
 40
0.0
 40
0.0
 40
0.0
 40
0.2895468475
 40
0.5491384346
 40
0.782278826
 40
1.0
 40
1.0
 40
1.0
 40
1.0
 10
66.2138216943
 20
173.1958173294
 30
0.0
 10
66.2357487384
 20
173.2084768386
 30
0.0
 10
66.2755395583
 20
173.2359140093
 30
0.0
 10
66.3231380548
 20
173.28588397
 30
0.0
 10
66.3532455924
 20
173.3412053633
 30
0.0
 10
66.360245924
 20
173.3808992862
 30
0.0
 10
66.360246271
 20
173.3999376944
 30
0.0
  0
SPLINE
  5
302
100
AcDbEntity
  8
0
100
AcDbSpline
 62
7
  6
CONTINUOUS
 70
0
 71
3
 72
11
 73
7
 74
0
 42
0.0000001
 43
0.0000001
 44
0.0000000001
 40
0.0
 40
0.0
 40
0.0
 40
0.0
 40
0.2895468475
 40
0.5491384346
 40
0.782278826
 40
1.0
 40
1.0
 40
1.0
 40
1.0
 10
67.1776253511
 20
175.2725304839
 30
0.0
 10
67.1995523951
 20
175.2851899931
 30
0.0
 10
67.2393432151
 20
175.3126271638
 30
0.0
 10
67.2869417116
 20
175.3625971244
 30
0.0
 10
67.3170492491
 20
175.4179185177
 30
0.0
 10
67.3240495807
 20
175.4576124406
 30
0.0
 10
67.3240499278
 20
175.4766508488
 30
0.0
  0
SPLINE
  5
303
100
AcDbEntity
  8
0
100
AcDbSpline
 62
7
  6
CONTINUOUS
 70
0
 71
3
 72
16
 73
12
 74
0
 42
0.0000001
 43
0.0000001
 44
0.0000000001
 40
0.0
 40
0.0
 40
0.0
 40
0.0
 40
0.0428749215
 40
0.0875218052
 40
0.1869210508
 40
0.3042319763
 40
0.4379526978
 40
0.5823548967
 40
0.7295670544
 40
0.8712583699
 40
1.0
 40
1.0
 40
1.0
 40
1.0
 10
61.7632712992
 20
172.8434760809
 30
0.0
 10
61.7632710398
 20
172.8292436786
 30
0.0
 10
61.7670505627
 20
172.8000628022
 30
0.0
 10
61.7901852207
 20
172.741901721
 30
0.0
 10
61.8486652822
 20
172.6747178857
 30
0.0
 10
61.94908858
 20
172.6137727925
 30
0.0
 10
62.0744169388
 20
172.5718137534
 30
0.0
 10
62.2149241472
 20
172.5521053321
 30
0.0
 10
62.3593980937
 20
172.5560748041
 30
0.0
 10
62.4959806204
 20
172.5834157636
 30
0.0
 10
62.5797950836
 20
172.6179877867
 30
0.0
 10
62.6168056011
 20
172.6393556914
 30
0.0
  0
SPLINE
  5
304
100
AcDbEntity
  8
0
100
AcDbSpline
 62
7
  6
CONTINUOUS
 70
0
 71
3
 72
11
 73
7
 74
0
 42
0.0000001
 43
0.0000001
 44
0.0000000001
 40
0.0
 40
0.0
 40
0.0
 40
0.0
 40
0.2895468475
 40
0.5491384346
 40
0.782278826
 40
1.0
 40
1.0
 40
1.0
 40
1.0
 10
62.6168056011
 20
172.6393556914
 30
0.0
 10
62.6387326451
 20
172.6520152006
 30
0.0
 10
62.6785234651
 20
172.6794523713
 30
0.0
 10
62.7261219615
 20
172.729422332
 30
0.0
 10
62.7562294991
 20
172.7847437252
 30
0.0
 10
62.7632298307
 20
172.8244376481
 30
0.0
 10
62.7632301777
 20
172.8434760564
 30
0.0
  0
SPLINE
  5
305
100
AcDbEntity
  8
0
100
AcDbSpline
 62
7
  6
CONTINUOUS
 70
0
 71
3
 72
11
 73
7
 74
0
 42
0.0000001
 43
0.0000001
 44
0.0000000001
 40
0.0
 40
0.0
 40
0.0
 40
0.0
 40
0.2895468475
 40
0.5491384346
 40
0.782278826
 40
1.0
 40
1.0
 40
1.0
 40
1.0
 10
63.5806092578
 20
174.7160688458
 30
0.0
 10
63.6025363018
 20
174.728728355
 30
0.0
 10
63.6423271218
 20
174.7561655257
 30
0.0
 10
63.6899256183
 20
174.8061354864
 30
0.0
 10
63.7200331559
 20
174.8614568797
 30
0.0
 10
63.7270334874
 20
174.9011508025
 30
0.0
 10
63.7270338345
 20
174.9201892108
 30
0.0
  0
SPLINE
  5
306
100
AcDbEntity
  8
0
100
AcDbSpline
 62
7
  6
CONTINUOUS
 70
0
 71
3
 72
11
 73
7
 74
0
 42
0.0000001
 43
0.0000001
 44
0.0000000001
 40
0.0
 40
0.0
 40
0.0
 40
0.0
 40
0.2895468475
 40
0.5491384346
 40
0.782278826
 40
1.0
 40
1.0
 40
1.0
 40
1.0
 10
64.5444129146
 20
176.7927820002
 30
0.0
 10
64.5663399586
 20
176.8054415094
 30
0.0
 10
64.6061307786
 20
176.8328786801
 30
0.0
 10
64.653729275
 20
176.8828486408
 30
0.0
 10
64.6838368126
 20
176.9381700341
 30
0.0
 10
64.6908371442
 20
176.977863957
 30
0.0
 10
64.6908374912
 20
176.9969023652
 30
0.0
  0
SPLINE
  5
307
100
AcDbEntity
  8
0
100
AcDbSpline
 62
7
  6
CONTINUOUS
 70
0
 71
3
 72
11
 73
7
 74
0
 42
0.0000001
 43
0.0000001
 44
0.0000000001
 40
0.0
 40
0.0
 40
0.0
 40
0.0
 40
0.2895468475
 40
0.5491384346
 40
0.782278826
 40
1.0
 40
1.0
 40
1.0
 40
1.0
 10
58.620246539
 20
174.3174984893
 30
0.0
 10
58.642173583
 20
174.3301579985
 30
0.0
 10
58.681964403
 20
174.3575951692
 30
0.0
 10
58.7295628995
 20
174.4075651299
 30
0.0
 10
58.7596704371
 20
174.4628865231
 30
0.0
 10
58.7666707686
 20
174.502580446
 30
0.0
 10
58.7666711157
 20
174.5216188543
 30
0.0
  0
SPLINE
  5
308
100
AcDbEntity
  8
0
100
AcDbSpline
 62
7
  6
CONTINUOUS
 70
0
 71
3
 72
11
 73
7
 74
0
 42
0.0000001
 43
0.0000001
 44
0.0000000001
 40
0.0
 40
0.0
 40
0.0
 40
0.0
 40
0.2895468475
 40
0.5491384346
 40
0.782278826
 40
1.0
 40
1.0
 40
1.0
 40
1.0
 10
60.8020907218
 20
176.1775785096
 30
0.0
 10
60.8240177658
 20
176.1902380188
 30
0.0
 10
60.8638085858
 20
176.2176751895
 30
0.0
 10
60.9114070823
 20
176.2676451502
 30
0.0
 10
60.9415146199
 20
176.3229665434
 30
0.0
 10
60.9485149514
 20
176.3626604663
 30
0.0
 10
60.9485152985
 20
176.3816988746
 30
0.0
  0
SPLINE
  5
309
100
AcDbEntity
  8
0
100
AcDbSpline
 62
7
  6
CONTINUOUS
 70
0
 71
3
 72
16
 73
12
 74
0
 42
0.0000001
 43
0.0000001
 44
0.0000000001
 40
0.0
 40
0.0
 40
0.0
 40
0.0
 40
0.0428749215
 40
0.0875218052
 40
0.1869210508
 40
0.3042319763
 40
0.4379526978
 40
0.5823548967
 40
0.7295670544
 40
0.8712583699
 40
1.0
 40
1.0
 40
1.0
 40
1.0
 10
59.94855642
 20
176.3816988991
 30
0.0
 10
59.9485561606
 20
176.3674664968
 30
0.0
 10
59.9523356835
 20
176.3382856204
 30
0.0
 10
59.9754703415
 20
176.2801245392
 30
0.0
 10
60.0339504029
 20
176.2129407039
 30
0.0
 10
60.1343737008
 20
176.1519956107
 30
0.0
 10
60.2597020596
 20
176.1100365716
 30
0.0
 10
60.4002092679
 20
176.0903281503
 30
0.0
 10
60.5446832145
 20
176.0942976223
 30
0.0
 10
60.6812657412
 20
176.1216385818
 30
0.0
 10
60.7650802044
 20
176.1562106049
 30
0.0
 10
60.8020907218
 20
176.1775785096
 30
0.0
  0
SPLINE
  5
30A
100
AcDbEntity
  8
0
100
AcDbSpline
 62
7
  6
CONTINUOUS
 70
0
 71
3
 72
16
 73
12
 74
0
 42
0.0000001
 43
0.0000001
 44
0.0000000001
 40
0.0
 40
0.0
 40
0.0
 40
0.0
 40
0.0428749215
 40
0.0875218052
 40
0.1869210508
 40
0.3042319763
 40
0.4379526978
 40
0.5823548967
 40
0.7295670544
 40
0.8712583699
 40
1.0
 40
1.0
 40
1.0
 40
1.0
 10
66.3240910493
 20
175.4766508734
 30
0.0
 10
66.3240907898
 20
175.4624184711
 30
0.0
 10
66.3278703128
 20
175.4332375947
 30
0.0
 10
66.3510049708
 20
175.3750765134
 30
0.0
 10
66.4094850322
 20
175.3078926782
 30
0.0
 10
66.5099083301
 20
175.246947585
 30
0.0
 10
66.6352366888
 20
175.2049885458
 30
0.0
 10
66.7757438972
 20
175.1852801245
 30
0.0
 10
66.9202178438
 20
175.1892495966
 30
0.0
 10
67.0568003705
 20
175.2165905561
 30
0.0
 10
67.1406148337
 20
175.2511625792
 30
0.0
 10
67.1776253511
 20
175.2725304839
 30
0.0
  0
SPLINE
  5
30B
100
AcDbEntity
  8
0
100
AcDbSpline
 62
7
  6
CONTINUOUS
 70
0
 71
3
 72
25
 73
21
 74
0
 42
0.0000001
 43
0.0000001
 44
0.0000000001
 40
0.0
 40
0.0
 40
0.0
 40
0.0
 40
0.0213318477
 40
0.0428920187
 40
0.0648971757
 40
0.0875415864
 40
0.1353161953
 40
0.1872167107
 40
0.2436541118
 40
0.3046018607
 40
0.3696895772
 40
0.4382869046
 40
0.5095734718
 40
0.5825978776
 40
0.6563296199
 40
0.7297069555
 40
0.8016837189
 40
0.8712768038
 40
0.9376163949
 40
1.0
 40
1.0
 40
1.0
 40
1.0
 10
54.283534351
 20
177.8037130719
 30
0.0
 10
54.2835405868
 20
177.93848084
 30
0.0
 10
54.3009275193
 20
178.2097713237
 30
0.0
 10
54.3788682547
 20
178.6133245498
 30
0.0
 10
54.5081747768
 20
179.0122157149
 30
0.0
 10
54.7520757863
 20
179.5439904867
 30
0.0
 10
55.1897736396
 20
180.1880628594
 30
0.0
 10
55.8889729796
 20
180.8900686374
 30
0.0
 10
56.7554880254
 20
181.5232906444
 30
0.0
 10
57.7707457173
 20
182.0754674976
 30
0.0
 10
58.9135202138
 20
182.5358579264
 30
0.0
 10
60.1597910972
 20
182.8950329429
 30
0.0
 10
61.483215083
 20
183.1455115588
 30
0.0
 10
62.8556765002
 20
183.281999411
 30
0.0
 10
64.2479300633
 20
183.3015945588
 30
0.0
 10
65.6302817252
 20
183.20387803
 30
0.0
 10
66.9732392901
 20
182.9909367529
 30
0.0
 10
68.2483166496
 20
182.6672472696
 30
0.0
 10
69.428240908
 20
182.2397288476
 30
0.0
 10
70.1596909269
 20
181.8790890028
 30
0.0
 10
70.501010442
 20
181.6820325469
 30
0.0
  0
SPLINE
  5
30C
100
AcDbEntity
  8
0
100
AcDbSpline
 62
7
  6
CONTINUOUS
 70
0
 71
3
 72
9
 73
5
 74
0
 42
0.0000001
 43
0.0000001
 44
0.0000000001
 40
0.0
 40
0.0
 40
0.0
 40
0.0
 40
0.2382115232
 40
1.0
 40
1.0
 40
1.0
 40
1.0
 10
54.2074221587
 20
174.3949126325
 30
0.0
 10
54.3239232738
 20
174.2858234596
 30
0.0
 10
54.828099552
 20
173.8440624018
 30
0.0
 10
55.3865832899
 20
173.4661624074
 30
0.0
 10
55.8286058198
 20
173.2109663541
 30
0.0
  0
SPLINE
  5
30D
100
AcDbEntity
  8
0
100
AcDbSpline
 62
7
  6
CONTINUOUS
 70
0
 71
3
 72
25
 73
21
 74
0
 42
0.0000001
 43
0.0000001
 44
0.0000000001
 40
0.0
 40
0.0
 40
0.0
 40
0.0
 40
0.0213317959
 40
0.0428920953
 40
0.0648971053
 40
0.087541746
 40
0.135316384
 40
0.1872169316
 40
0.2436543457
 40
0.3046020877
 40
0.3696898047
 40
0.4382871466
 40
0.5095737439
 40
0.5825981949
 40
0.6563299367
 40
0.7297073596
 40
0.8016838927
 40
0.871277274
 40
0.9376157803
 40
1.0
 40
1.0
 40
1.0
 40
1.0
 10
75.0335084192
 20
175.3542058344
 30
0.0
 10
75.033508229
 20
175.1946128206
 30
0.0
 10
75.0129325425
 20
174.8733445992
 30
0.0
 10
74.9206021723
 20
174.395460285
 30
0.0
 10
74.7675088389
 20
173.9230772727
 30
0.0
 10
74.4786431761
 20
173.2933576483
 30
0.0
 10
73.9603339394
 20
172.5306311139
 30
0.0
 10
73.1323274611
 20
171.6993111373
 30
0.0
 10
72.1061928578
 20
170.9494422993
 30
0.0
 10
70.9039133029
 20
170.2955491662
 30
0.0
 10
69.5506278335
 20
169.7503500989
 30
0.0
 10
68.0747803905
 20
169.3250114302
 30
0.0
 10
66.5075671917
 20
169.0283918976
 30
0.0
 10
64.8822834394
 20
168.8667622502
 30
0.0
 10
63.2335611293
 20
168.8435565832
 30
0.0
 10
61.5965672857
 20
168.9592765724
 30
0.0
 10
60.0062208236
 20
169.2114394512
 30
0.0
 10
58.4962704753
 20
169.5947621999
 30
0.0
 10
57.0989902094
 20
170.1010252962
 30
0.0
 10
56.2328039421
 20
170.5281004873
 30
0.0
 10
55.8286058198
 20
170.7614591027
 30
0.0
  0
SPLINE
  5
30E
100
AcDbEntity
  8
0
100
AcDbSpline
 62
7
  6
CONTINUOUS
 70
0
 71
3
 72
9
 73
5
 74
0
 42
0.0000001
 43
0.0000001
 44
0.0000000001
 40
0.0
 40
0.0
 40
0.0
 40
0.0
 40
0.2405176126
 40
1.0
 40
1.0
 40
1.0
 40
1.0
 10
54.2658620073
 20
171.6275917296
 30
0.0
 10
54.3691527445
 20
171.539658651
 30
0.0
 10
54.8079184426
 20
171.1850441167
 30
0.0
 10
55.2808699183
 20
170.8735670415
 30
0.0
 10
55.6518298605
 20
170.6593980642
 30
0.0
  0
SPLINE
  5
30F
100
AcDbEntity
  8
0
100
AcDbSpline
 62
7
  6
CONTINUOUS
 70
0
 71
3
 72
25
 73
21
 74
0
 42
0.0000001
 43
0.0000001
 44
0.0000000001
 40
0.0
 40
0.0
 40
0.0
 40
0.0
 40
0.0213169367
 40
0.0428432511
 40
0.0647779373
 40
0.0873020186
 40
0.1346543607
 40
0.185869775
 40
0.2413912437
 40
0.3012644823
 40
0.3652168016
 40
0.4327301176
 40
0.5031026951
 40
0.5755012077
 40
0.6490059707
 40
0.7226523845
 40
0.7954697117
 40
0.8665219567
 40
0.934943625
 40
1.0
 40
1.0
 40
1.0
 40
1.0
 10
75.2835081014
 20
167.1891816633
 30
0.0
 10
75.2835079195
 20
167.0330618317
 30
0.0
 10
75.2642656433
 20
166.7189540671
 30
0.0
 10
75.1778714153
 20
166.2513770558
 30
0.0
 10
75.034561234
 20
165.788698648
 30
0.0
 10
74.7642920921
 20
165.1716798738
 30
0.0
 10
74.279045443
 20
164.421669007
 30
0.0
 10
73.5007525849
 20
163.5975485315
 30
0.0
 10
72.5333573678
 20
162.8470571893
 30
0.0
 10
71.3960118832
 20
162.1835483085
 30
0.0
 10
70.1105865792
 20
161.6188334501
 30
0.0
 10
68.7018592566
 20
161.1634786531
 30
0.0
 10
67.197115787
 20
160.8261546029
 30
0.0
 10
65.625646928
 20
160.6133848957
 30
0.0
 10
64.0181416499
 20
160.5293097824
 30
0.0
 10
62.4060421603
 20
160.5755797678
 30
0.0
 10
60.8209020581
 20
160.7512706018
 30
0.0
 10
59.2936494253
 20
161.0530099777
 30
0.0
 10
57.8542144423
 20
161.4748114952
 30
0.0
 10
56.9456471721
 20
161.8412725105
 30
0.0
 10
56.5146040404
 20
162.0442811143
 30
0.0
  0
SPLINE
  5
310
100
AcDbEntity
  8
0
100
AcDbSpline
 62
7
  6
CONTINUOUS
 70
0
 71
3
 72
12
 73
8
 74
0
 42
0.0000001
 43
0.0000001
 44
0.0000000001
 40
0.0
 40
0.0
 40
0.0
 40
0.0
 40
0.2895739571
 40
0.5486454494
 40
0.7816398657
 40
0.8918411002
 40
1.0
 40
1.0
 40
1.0
 40
1.0
 10
62.1925986453
 20
150.4306587604
 30
0.0
 10
62.0938384752
 20
150.4876766813
 30
0.0
 10
61.9146952903
 20
150.6110623402
 30
0.0
 10
61.7006620965
 20
150.8358517994
 30
0.0
 10
61.5857601538
 20
151.0476897443
 30
0.0
 10
61.5409955548
 20
151.2204425632
 30
0.0
 10
61.5335941549
 20
151.3066138071
 30
0.0
 10
61.5335898641
 20
151.3492081084
 30
0.0
  0
SPLINE
  5
311
100
AcDbEntity
  8
0
100
AcDbSpline
 62
7
  6
CONTINUOUS
 70
0
 71
3
 72
12
 73
8
 74
0
 42
0.0000001
 43
0.0000001
 44
0.0000000001
 40
0.0
 40
0.0
 40
0.0
 40
0.0
 40
0.2895739571
 40
0.5486454494
 40
0.7816398657
 40
0.8918411002
 40
1.0
 40
1.0
 40
1.0
 40
1.0
 10
76.1932546221
 20
158.5138930071
 30
0.0
 10
76.0944944521
 20
158.5709109279
 30
0.0
 10
75.9153512671
 20
158.6942965868
 30
0.0
 10
75.7013180734
 20
158.919086046
 30
0.0
 10
75.5864161307
 20
159.130923991
 30
0.0
 10
75.5416515316
 20
159.3036768099
 30
0.0
 10
75.5342501317
 20
159.3898480537
 30
0.0
 10
75.5342458409
 20
159.432442355
 30
0.0
  0
SPLINE
  5
312
100
AcDbEntity
  8
0
100
AcDbSpline
 62
7
  6
CONTINUOUS
 70
0
 71
3
 72
11
 73
7
 74
0
 42
0.0000001
 43
0.0000001
 44
0.0000000001
 40
0.0
 40
0.0
 40
0.0
 40
0.0
 40
0.2177709015
 40
0.4509493769
 40
0.7101992283
 40
1.0
 40
1.0
 40
1.0
 40
1.0
 10
61.533582279
 20
153.227163666
 30
0.0
 10
61.5335822771
 20
153.141467418
 30
0.0
 10
61.5652131915
 20
152.9628125895
 30
0.0
 10
61.7006819003
 20
152.7139965374
 30
0.0
 10
61.9146855305
 20
152.488949997
 30
0.0
 10
62.0938355746
 20
152.3656339153
 30
0.0
 10
62.1925986453
 20
152.3086143198
 30
0.0
  0
SPLINE
  5
313
100
AcDbEntity
  8
0
100
AcDbSpline
 62
7
  6
CONTINUOUS
 70
0
 71
3
 72
16
 73
12
 74
0
 42
0.0000001
 43
0.0000001
 44
0.0000000001
 40
0.0
 40
0.0
 40
0.0
 40
0.0
 40
0.0428749215
 40
0.0875218052
 40
0.1869210508
 40
0.3042319763
 40
0.4379526978
 40
0.5823548967
 40
0.7295670544
 40
0.8712583699
 40
1.0
 40
1.0
 40
1.0
 40
1.0
 10
65.3602873925
 20
173.399937719
 30
0.0
 10
65.3602871331
 20
173.3857053167
 30
0.0
 10
65.364066656
 20
173.3565244402
 30
0.0
 10
65.387201314
 20
173.298363359
 30
0.0
 10
65.4456813754
 20
173.2311795238
 30
0.0
 10
65.5461046733
 20
173.1702344305
 30
0.0
 10
65.6714330321
 20
173.1282753914
 30
0.0
 10
65.8119402404
 20
173.1085669701
 30
0.0
 10
65.956414187
 20
173.1125364422
 30
0.0
 10
66.0929967137
 20
173.1398774017
 30
0.0
 10
66.1768111769
 20
173.1744494248
 30
0.0
 10
66.2138216943
 20
173.1958173294
 30
0.0
  0
SPLINE
  5
314
100
AcDbEntity
  8
0
100
AcDbSpline
 62
7
  6
CONTINUOUS
 70
0
 71
3
 72
25
 73
21
 74
0
 42
0.0000001
 43
0.0000001
 44
0.0000000001
 40
0.0
 40
0.0
 40
0.0
 40
0.0
 40
0.0623840478
 40
0.1287222354
 40
0.1983153839
 40
0.2702918233
 40
0.3436694051
 40
0.4174014014
 40
0.4904260008
 40
0.5617126415
 40
0.6303100324
 40
0.6953978249
 40
0.7563456208
 40
0.8127830591
 40
0.8646836394
 40
0.9124583238
 40
0.9351029762
 40
0.9571079771
 40
0.9786682464
 40
1.0
 40
1.0
 40
1.0
 40
1.0
 10
55.8286058198
 20
173.2109663541
 30
0.0
 10
56.2328028248
 20
172.9776083837
 30
0.0
 10
57.0989856266
 20
172.5505345175
 30
0.0
 10
58.4962605949
 20
172.0442728145
 30
0.0
 10
60.006205832
 20
171.660949694
 30
0.0
 10
61.5965508411
 20
171.4087857028
 30
0.0
 10
63.2335469608
 20
171.2930640933
 30
0.0
 10
64.8822734951
 20
171.3162688366
 30
0.0
 10
66.5075606329
 20
171.4778981562
 30
0.0
 10
68.0747756789
 20
171.7745175754
 30
0.0
 10
69.5506244267
 20
172.1998562208
 30
0.0
 10
70.9039112418
 20
172.7450555014
 30
0.0
 10
72.1061918955
 20
173.3989490196
 30
0.0
 10
73.132327189
 20
174.1488182989
 30
0.0
 10
73.9603342206
 20
174.9801388467
 30
0.0
 10
74.4786435535
 20
175.7428661133
 30
0.0
 10
74.767509429
 20
176.3725860512
 30
0.0
 10
74.9206023071
 20
176.8449689876
 30
0.0
 10
75.0129325135
 20
177.3228527179
 30
0.0
 10
75.033507868
 20
177.6441203908
 30
0.0
 10
75.0335082765
 20
177.8037130864
 30
0.0
  0
SPLINE
  5
315
100
AcDbEntity
  8
0
100
AcDbSpline
 62
7
  6
CONTINUOUS
 70
0
 71
3
 72
18
 73
14
 74
0
 42
0.0000001
 43
0.0000001
 44
0.0000000001
 40
0.0
 40
0.0
 40
0.0
 40
0.0
 40
0.0428470127
 40
0.0874636176
 40
0.1352847863
 40
0.1872363379
 40
0.2437275441
 40
0.3047334096
 40
0.4383686398
 40
0.5826762573
 40
0.7297915395
 40
0.8713429642
 40
1.0
 40
1.0
 40
1.0
 40
1.0
 10
66.033574694
 20
151.3492081049
 30
0.0
 10
66.0335811462
 20
151.2851584417
 30
0.0
 10
66.0164335699
 20
151.1538593662
 30
0.0
 10
65.9411522355
 20
150.9642652568
 30
0.0
 10
65.8189558547
 20
150.7845323606
 30
0.0
 10
65.6533314189
 20
150.6182314565
 30
0.0
 10
65.4481122093
 20
150.4682511373
 30
0.0
 10
65.1175175712
 20
150.2885222262
 30
0.0
 10
64.6330947725
 20
150.1267358055
 30
0.0
 10
64.0010038106
 20
150.0379790631
 30
0.0
 10
63.3508454705
 20
150.0559360779
 30
0.0
 10
62.7362695908
 20
150.1789136368
 30
0.0
 10
62.3591556619
 20
150.3344991974
 30
0.0
 10
62.1925986453
 20
150.4306587604
 30
0.0
  0
SPLINE
  5
316
100
AcDbEntity
  8
0
100
AcDbSpline
 62
7
  6
CONTINUOUS
 70
0
 71
3
 72
10
 73
6
 74
0
 42
0.0000001
 43
0.0000001
 44
0.0000000001
 40
0.0
 40
0.0
 40
0.0
 40
0.0
 40
0.5181983771
 40
0.7647386087
 40
1.0
 40
1.0
 40
1.0
 40
1.0
 10
61.5164148716
 20
152.9232897113
 30
0.0
 10
60.6041952045
 20
153.0292044393
 30
0.0
 10
59.2653030964
 20
153.2818927562
 30
0.0
 10
57.5761905923
 20
153.8230263383
 30
0.0
 10
56.7878909277
 20
154.1551690998
 30
0.0
 10
56.4123296314
 20
154.33623057
 30
0.0
  0
SPLINE
  5
317
100
AcDbEntity
  8
0
100
AcDbSpline
 62
7
  6
CONTINUOUS
 70
0
 71
3
 72
16
 73
12
 74
0
 42
0.0000001
 43
0.0000001
 44
0.0000000001
 40
0.0
 40
0.0
 40
0.0
 40
0.0
 40
0.0466476807
 40
0.0946839106
 40
0.1962058217
 40
0.3069810389
 40
0.427955292
 40
0.5589988932
 40
0.6991486334
 40
0.8468106414
 40
1.0
 40
1.0
 40
1.0
 40
1.0
 10
75.1854485126
 20
158.567143244
 30
0.0
 10
75.1462726132
 20
158.3950697012
 30
0.0
 10
75.0435520841
 20
158.0506854206
 30
0.0
 10
74.7445102351
 20
157.3696090757
 30
0.0
 10
74.1906582309
 20
156.5448686456
 30
0.0
 10
73.2922760217
 20
155.6511985808
 30
0.0
 10
72.1706325358
 20
154.8512072869
 30
0.0
 10
70.852350874
 20
154.1619062455
 30
0.0
 10
69.3678755604
 20
153.5981410156
 30
0.0
 10
67.7518734308
 20
153.1726258205
 30
0.0
 10
66.6264272289
 20
152.9901468382
 30
0.0
 10
66.0507513156
 20
152.9233034369
 30
0.0
  0
SPLINE
  5
318
100
AcDbEntity
  8
0
100
AcDbSpline
 62
7
  6
CONTINUOUS
 70
0
 71
3
 72
11
 73
7
 74
0
 42
0.0000001
 43
0.0000001
 44
0.0000000001
 40
0.0
 40
0.0
 40
0.0
 40
0.0
 40
0.2177709015
 40
0.4509493769
 40
0.7101992283
 40
1.0
 40
1.0
 40
1.0
 40
1.0
 10
75.5342382559
 20
161.3103979127
 30
0.0
 10
75.534238254
 20
161.2247016647
 30
0.0
 10
75.5658691684
 20
161.0460468362
 30
0.0
 10
75.7013378771
 20
160.7972307841
 30
0.0
 10
75.9153415073
 20
160.5721842436
 30
0.0
 10
76.0944915515
 20
160.4488681619
 30
0.0
 10
76.1932546221
 20
160.3918485665
 30
0.0
  0
SPLINE
  5
319
100
AcDbEntity
  8
0
100
AcDbSpline
 62
7
  6
CONTINUOUS
 70
0
 71
3
 72
18
 73
14
 74
0
 42
0.0000001
 43
0.0000001
 44
0.0000000001
 40
0.0
 40
0.0
 40
0.0
 40
0.0
 40
0.0428470127
 40
0.0874636176
 40
0.1352847863
 40
0.1872363379
 40
0.2437275441
 40
0.3047334096
 40
0.4383686398
 40
0.5826762573
 40
0.7297915395
 40
0.8713429642
 40
1.0
 40
1.0
 40
1.0
 40
1.0
 10
80.0342306708
 20
159.4324423515
 30
0.0
 10
80.034237123
 20
159.3683926883
 30
0.0
 10
80.0170895467
 20
159.2370936128
 30
0.0
 10
79.9418082123
 20
159.0474995034
 30
0.0
 10
79.8196118316
 20
158.8677666073
 30
0.0
 10
79.6539873958
 20
158.7014657032
 30
0.0
 10
79.4487681862
 20
158.5514853839
 30
0.0
 10
79.1181735481
 20
158.3717564729
 30
0.0
 10
78.6337507493
 20
158.2099700522
 30
0.0
 10
78.0016597875
 20
158.1212133097
 30
0.0
 10
77.3515014474
 20
158.1391703246
 30
0.0
 10
76.7369255676
 20
158.2621478834
 30
0.0
 10
76.3598116388
 20
158.4177334441
 30
0.0
 10
76.1932546221
 20
158.5138930071
 30
0.0
  0
SPLINE
  5
31A
100
AcDbEntity
  8
0
100
AcDbSpline
 62
7
  6
CONTINUOUS
 70
0
 71
3
 72
14
 73
10
 74
0
 42
0.0000001
 43
0.0000001
 44
0.0000000001
 40
0.0
 40
0.0
 40
0.0
 40
0.0
 40
0.2892820218
 40
0.4225404569
 40
0.548498011
 40
0.6678964344
 40
0.7818698289
 40
0.8919530438
 40
1.0
 40
1.0
 40
1.0
 40
1.0
 10
70.501010442
 20
181.6820325469
 30
0.0
 10
70.9180228376
 20
181.4412757747
 30
0.0
 10
71.5020183718
 20
181.0391988902
 30
0.0
 10
72.162735855
 20
180.4068485993
 30
0.0
 10
72.5648569428
 20
179.9194139748
 30
0.0
 10
72.8827627279
 20
179.410546802
 30
0.0
 10
73.1128879195
 20
178.8847502855
 30
0.0
 10
73.2522617765
 20
178.3473764228
 30
0.0
 10
73.2835219477
 20
177.9835616599
 30
0.0
 10
73.283513626
 20
177.8037130983
 30
0.0
  0
SPLINE
  5
31B
100
AcDbEntity
  8
0
100
AcDbSpline
 62
7
  6
CONTINUOUS
 70
0
 71
3
 72
16
 73
12
 74
0
 42
0.0000001
 43
0.0000001
 44
0.0000000001
 40
0.0
 40
0.0
 40
0.0
 40
0.0
 40
0.0428789105
 40
0.0875258465
 40
0.1869171811
 40
0.3042163199
 40
0.4379315322
 40
0.5823361502
 40
0.7295547001
 40
0.8712545606
 40
1.0
 40
1.0
 40
1.0
 40
1.0
 10
38.2728693137
 20
177.7689408814
 30
0.0
 10
38.2728692688
 20
177.7831746054
 30
0.0
 10
38.2690910792
 20
177.8123569285
 30
0.0
 10
38.2459571141
 20
177.8705171589
 30
0.0
 10
38.1874812176
 20
177.9376954824
 30
0.0
 10
38.0870664539
 20
177.9986378252
 30
0.0
 10
37.9617439099
 20
178.0405986309
 30
0.0
 10
37.8212360422
 20
178.0603101213
 30
0.0
 10
37.6767561787
 20
178.0563439057
 30
0.0
 10
37.5401672508
 20
178.0290027938
 30
0.0
 10
37.4563486647
 20
177.9944298715
 30
0.0
 10
37.4193370587
 20
177.9730613383
 30
0.0
  0
SPLINE
  5
31C
100
AcDbEntity
  8
0
100
AcDbSpline
 62
7
  6
CONTINUOUS
 70
0
 71
3
 72
11
 73
7
 74
0
 42
0.0000001
 43
0.0000001
 44
0.0000000001
 40
0.0
 40
0.0
 40
0.0
 40
0.0
 40
0.2905619462
 40
0.5495933702
 40
0.7820866284
 40
1.0
 40
1.0
 40
1.0
 40
1.0
 10
55.5405491073
 20
162.9201674365
 30
0.0
 10
55.4566078606
 20
162.9686298414
 30
0.0
 10
55.3047694452
 20
163.073667163
 30
0.0
 10
55.1251809692
 20
163.2663647107
 30
0.0
 10
55.0150711443
 20
163.4798827479
 30
0.0
 10
54.9939839819
 20
163.6323172582
 30
0.0
 10
54.9970858418
 20
163.7049431908
 30
0.0
  0
SPLINE
  5
31D
100
AcDbEntity
  8
0
100
AcDbSpline
 62
7
  6
CONTINUOUS
 70
0
 71
3
 72
12
 73
8
 74
0
 42
0.0000001
 43
0.0000001
 44
0.0000000001
 40
0.0
 40
0.0
 40
0.0
 40
0.0
 40
0.2903233873
 40
0.5491423987
 40
0.7814453622
 40
0.8915534942
 40
1.0
 40
1.0
 40
1.0
 40
1.0
 10
29.7417003409
 20
162.6751599512
 30
0.0
 10
29.6222821769
 20
162.6062142535
 30
0.0
 10
29.4062832274
 20
162.4567011725
 30
0.0
 10
29.1507449871
 20
162.1828779781
 30
0.0
 10
29.0180138154
 20
161.9243831153
 30
0.0
 10
28.9710722048
 20
161.7144954261
 30
0.0
 10
28.9663512807
 20
161.610155977
 30
0.0
 10
28.9685491788
 20
161.5586951333
 30
0.0
  0
SPLINE
  5
31E
100
AcDbEntity
  8
0
100
AcDbSpline
 62
7
  6
CONTINUOUS
 70
0
 71
3
 72
12
 73
8
 74
0
 42
0.0000001
 43
0.0000001
 44
0.0000000001
 40
0.0
 40
0.0
 40
0.0
 40
0.0
 40
0.2903233873
 40
0.5491423987
 40
0.7814453622
 40
0.8915534942
 40
1.0
 40
1.0
 40
1.0
 40
1.0
 10
29.7416703125
 20
166.839232984
 30
0.0
 10
29.6222521484
 20
166.7702872863
 30
0.0
 10
29.4062531989
 20
166.6207742053
 30
0.0
 10
29.1507149586
 20
166.3469510109
 30
0.0
 10
29.0179837869
 20
166.0884561481
 30
0.0
 10
28.9710421764
 20
165.8785684589
 30
0.0
 10
28.9663212522
 20
165.7742290098
 30
0.0
 10
28.9685191504
 20
165.7227681661
 30
0.0
  0
SPLINE
  5
31F
100
AcDbEntity
  8
0
100
AcDbSpline
 62
7
  6
CONTINUOUS
 70
0
 71
3
 72
13
 73
9
 74
0
 42
0.0000001
 43
0.0000001
 44
0.0000000001
 40
0.0
 40
0.0
 40
0.0
 40
0.0
 40
0.098518942
 40
0.2008939972
 40
0.3103072907
 40
0.4288349957
 40
0.6957023334
 40
1.0
 40
1.0
 40
1.0
 40
1.0
 10
39.02288766
 20
172.8699264607
 30
0.0
 10
39.0228902807
 20
172.9045470665
 30
0.0
 10
39.0138788912
 20
172.9754264294
 30
0.0
 10
38.9743293517
 20
173.0780194765
 30
0.0
 10
38.9099809445
 20
173.1755695556
 30
0.0
 10
38.7887624419
 20
173.3013397964
 30
0.0
 10
38.581393006
 20
173.4329151269
 30
0.0
 10
38.3909961944
 20
173.5006059754
 30
0.0
 10
38.2875232768
 20
173.5275896077
 30
0.0
  0
SPLINE
  5
320
100
AcDbEntity
  8
0
100
AcDbSpline
 62
7
  6
CONTINUOUS
 70
0
 71
3
 72
17
 73
13
 74
0
 42
0.0000001
 43
0.0000001
 44
0.0000000001
 40
0.0
 40
0.0
 40
0.0
 40
0.0
 40
0.0428584629
 40
0.08748393
 40
0.135317815
 40
0.1872795469
 40
0.3045398917
 40
0.4382057949
 40
0.5825481992
 40
0.7297130515
 40
0.8713063844
 40
1.0
 40
1.0
 40
1.0
 40
1.0
 10
43.4314344657
 20
179.3682355925
 30
0.0
 10
43.4314371593
 20
179.4038187685
 30
0.0
 10
43.4218990361
 20
179.4767583539
 30
0.0
 10
43.3800890486
 20
179.5820885329
 30
0.0
 10
43.3121954938
 20
179.6819363897
 30
0.0
 10
43.1844105911
 20
179.810191471
 30
0.0
 10
42.9666582867
 20
179.9427386166
 30
0.0
 10
42.6535709766
 20
180.047321522
 30
0.0
 10
42.3022070733
 20
180.0967054737
 30
0.0
 10
41.9410555466
 20
180.0867080374
 30
0.0
 10
41.5995924446
 20
180.0184060178
 30
0.0
 10
41.3900845189
 20
179.931960137
 30
0.0
 10
41.2975515706
 20
179.8785365333
 30
0.0
  0
SPLINE
  5
321
100
AcDbEntity
  8
0
100
AcDbSpline
 62
7
  6
CONTINUOUS
 70
0
 71
3
 72
16
 73
12
 74
0
 42
0.0000001
 43
0.0000001
 44
0.0000000001
 40
0.0
 40
0.0
 40
0.0
 40
0.0
 40
0.0428749215
 40
0.0875218052
 40
0.1869210508
 40
0.3042319763
 40
0.4379526978
 40
0.5823548967
 40
0.7295670544
 40
0.8712583699
 40
1.0
 40
1.0
 40
1.0
 40
1.0
 10
37.6899381149
 20
174.7818488437
 30
0.0
 10
37.6899383743
 20
174.796081246
 30
0.0
 10
37.6861588514
 20
174.8252621224
 30
0.0
 10
37.6630241934
 20
174.8834232037
 30
0.0
 10
37.604544132
 20
174.9506070389
 30
0.0
 10
37.5041208341
 20
175.0115521321
 30
0.0
 10
37.3787924753
 20
175.0535111712
 30
0.0
 10
37.238285267
 20
175.0732195925
 30
0.0
 10
37.0938113204
 20
175.0692501205
 30
0.0
 10
36.9572287937
 20
175.041909161
 30
0.0
 10
36.8734143305
 20
175.0073371379
 30
0.0
 10
36.8364038131
 20
174.9859692332
 30
0.0
  0
SPLINE
  5
322
100
AcDbEntity
  8
0
100
AcDbSpline
 62
7
  6
CONTINUOUS
 70
0
 71
3
 72
17
 73
13
 74
0
 42
0.0000001
 43
0.0000001
 44
0.0000000001
 40
0.0
 40
0.0
 40
0.0
 40
0.0
 40
0.0428584629
 40
0.08748393
 40
0.135317815
 40
0.1872795469
 40
0.3045398917
 40
0.4382057949
 40
0.5825481992
 40
0.7297130515
 40
0.8713063844
 40
1.0
 40
1.0
 40
1.0
 40
1.0
 10
44.1032461456
 20
175.925966347
 30
0.0
 10
44.1032488392
 20
175.961549523
 30
0.0
 10
44.0937107161
 20
176.0344891084
 30
0.0
 10
44.0519007286
 20
176.1398192874
 30
0.0
 10
43.9840071737
 20
176.2396671442
 30
0.0
 10
43.8562222711
 20
176.3679222254
 30
0.0
 10
43.6384699666
 20
176.5004693711
 30
0.0
 10
43.3253826566
 20
176.6050522765
 30
0.0
 10
42.9740187532
 20
176.6544362282
 30
0.0
 10
42.6128672266
 20
176.6444387919
 30
0.0
 10
42.2714041245
 20
176.5761367723
 30
0.0
 10
42.0618961989
 20
176.4896908915
 30
0.0
 10
41.9693632505
 20
176.4362672878
 30
0.0
  0
SPLINE
  5
323
100
AcDbEntity
  8
0
100
AcDbSpline
 62
7
  6
CONTINUOUS
 70
0
 71
3
 72
17
 73
13
 74
0
 42
0.0000001
 43
0.0000001
 44
0.0000000001
 40
0.0
 40
0.0
 40
0.0
 40
0.0
 40
0.0428584629
 40
0.08748393
 40
0.135317815
 40
0.1872795469
 40
0.3045398917
 40
0.4382057949
 40
0.5825481992
 40
0.7297130515
 40
0.8713063844
 40
1.0
 40
1.0
 40
1.0
 40
1.0
 10
48.3458691689
 20
178.3754312703
 30
0.0
 10
48.3458718625
 20
178.4110144462
 30
0.0
 10
48.3363337394
 20
178.4839540316
 30
0.0
 10
48.2945237519
 20
178.5892842107
 30
0.0
 10
48.226630197
 20
178.6891320674
 30
0.0
 10
48.0988452943
 20
178.8173871487
 30
0.0
 10
47.8810929899
 20
178.9499342943
 30
0.0
 10
47.5680056798
 20
179.0545171998
 30
0.0
 10
47.2166417765
 20
179.1039011515
 30
0.0
 10
46.8554902499
 20
179.0939037151
 30
0.0
 10
46.5140271478
 20
179.0256016956
 30
0.0
 10
46.3045192221
 20
178.9391558147
 30
0.0
 10
46.2119862738
 20
178.885732211
 30
0.0
  0
SPLINE
  5
324
100
AcDbEntity
  8
0
100
AcDbSpline
 62
7
  6
CONTINUOUS
 70
0
 71
3
 72
16
 73
12
 74
0
 42
0.0000001
 43
0.0000001
 44
0.0000000001
 40
0.0
 40
0.0
 40
0.0
 40
0.0
 40
0.0428749215
 40
0.0875218052
 40
0.1869210508
 40
0.3042319763
 40
0.4379526978
 40
0.5823548967
 40
0.7295670544
 40
0.8712583699
 40
1.0
 40
1.0
 40
1.0
 40
1.0
 10
41.3715790531
 20
172.6563005433
 30
0.0
 10
41.3715793125
 20
172.6705329456
 30
0.0
 10
41.3677997896
 20
172.6997138221
 30
0.0
 10
41.3446651316
 20
172.7578749033
 30
0.0
 10
41.2861850701
 20
172.8250587385
 30
0.0
 10
41.1857617723
 20
172.8860038317
 30
0.0
 10
41.0604334135
 20
172.9279628709
 30
0.0
 10
40.9199262051
 20
172.9476712922
 30
0.0
 10
40.7754522586
 20
172.9437018201
 30
0.0
 10
40.6388697319
 20
172.9163608606
 30
0.0
 10
40.5550552687
 20
172.8817888375
 30
0.0
 10
40.5180447512
 20
172.8604209329
 30
0.0
  0
SPLINE
  5
325
100
AcDbEntity
  8
0
100
AcDbSpline
 62
7
  6
CONTINUOUS
 70
0
 71
3
 72
9
 73
5
 74
0
 42
0.0000001
 43
0.0000001
 44
0.0000000001
 40
0.0
 40
0.0
 40
0.0
 40
0.0
 40
0.5035409473
 40
1.0
 40
1.0
 40
1.0
 40
1.0
 10
31.2733096168
 20
166.4613473499
 30
0.0
 10
31.2174512684
 20
166.2738677331
 30
0.0
 10
31.1321427325
 20
165.893330238
 30
0.0
 10
31.1032720724
 20
165.5043076517
 30
0.0
 10
31.1032631465
 20
165.3114349134
 30
0.0
  0
SPLINE
  5
326
100
AcDbEntity
  8
0
100
AcDbSpline
 62
7
  6
CONTINUOUS
 70
0
 71
3
 72
9
 73
5
 74
0
 42
0.0000001
 43
0.0000001
 44
0.0000000001
 40
0.0
 40
0.0
 40
0.0
 40
0.0
 40
0.5078021578
 40
1.0
 40
1.0
 40
1.0
 40
1.0
 10
31.7297442214
 20
175.5696654626
 30
0.0
 10
31.6081401652
 20
175.302067724
 30
0.0
 10
31.4187901327
 20
174.7501737633
 30
0.0
 10
31.3532759343
 20
174.1696101443
 30
0.0
 10
31.3532628482
 20
173.8847102929
 30
0.0
  0
SPLINE
  5
327
100
AcDbEntity
  8
0
100
AcDbSpline
 62
7
  6
CONTINUOUS
 70
0
 71
3
 72
24
 73
20
 74
0
 42
0.0000001
 43
0.0000001
 44
0.0000000001
 40
0.0
 40
0.0
 40
0.0
 40
0.0
 40
0.0623868734
 40
0.1287323591
 40
0.1983295573
 40
0.270311356
 40
0.3436948119
 40
0.4174333854
 40
0.49046413
 40
0.5617566523
 40
0.6303593675
 40
0.6954519168
 40
0.7564040103
 40
0.812845362
 40
0.8647495351
 40
0.912527572
 40
0.9571049134
 40
0.9786665731
 40
1.0
 40
1.0
 40
1.0
 40
1.0
 10
50.6313926163
 20
181.6414056629
 30
0.0
 10
50.2361897854
 20
181.869570962
 30
0.0
 10
49.3892498307
 20
182.2871476895
 30
0.0
 10
48.0230380615
 20
182.7821770702
 30
0.0
 10
46.5466349291
 20
183.1569633649
 30
0.0
 10
44.9916408681
 20
183.4035372168
 30
0.0
 10
43.3910123608
 20
183.5166781827
 30
0.0
 10
41.778910282
 20
183.4939923773
 30
0.0
 10
40.1897255413
 20
183.3359487961
 30
0.0
 10
38.6573291835
 20
183.0459184146
 30
0.0
 10
37.2142741529
 20
182.6300249392
 30
0.0
 10
35.8910657634
 20
182.0969501045
 30
0.0
 10
34.7155020247
 20
181.4575543485
 30
0.0
 10
33.7121990966
 20
180.7244672253
 30
0.0
 10
32.9025221789
 20
179.9112467177
 30
0.0
 10
32.3051240475
 20
179.0330263174
 30
0.0
 10
31.994878071
 20
178.2505513869
 30
0.0
 10
31.8734520055
 20
177.6209108081
 30
0.0
 10
31.8532550911
 20
177.3067665888
 30
0.0
 10
31.8532552285
 20
177.1507199707
 30
0.0
  0
SPLINE
  5
328
100
AcDbEntity
  8
0
100
AcDbSpline
 62
7
  6
CONTINUOUS
 70
0
 71
3
 72
24
 73
20
 74
0
 42
0.0000001
 43
0.0000001
 44
0.0000000001
 40
0.0
 40
0.0
 40
0.0
 40
0.0
 40
0.0623854284
 40
0.128733111
 40
0.1983292436
 40
0.2703113753
 40
0.3436941371
 40
0.4174328989
 40
0.4904637959
 40
0.5617566051
 40
0.630359599
 40
0.6954522686
 40
0.7564043095
 40
0.8128455068
 40
0.8647495069
 40
0.9125274261
 40
0.9571046932
 40
0.9786665716
 40
1.0
 40
1.0
 40
1.0
 40
1.0
 10
49.3940153646
 20
173.374492991
 30
0.0
 10
49.0616938273
 20
173.1826282073
 30
0.0
 10
48.3494872489
 20
172.8314835507
 30
0.0
 10
47.2006322953
 20
172.4151896247
 30
0.0
 10
45.9590960235
 20
172.1000367486
 30
0.0
 10
44.6514948401
 20
171.8926775202
 30
0.0
 10
43.3055086961
 20
171.7975360319
 30
0.0
 10
41.9498757282
 20
171.8166025262
 30
0.0
 10
40.6135072969
 20
171.9494965556
 30
0.0
 10
39.3248917896
 20
172.1933798388
 30
0.0
 10
38.111404656
 20
172.543106079
 30
0.0
 10
36.9987014069
 20
172.9913760403
 30
0.0
 10
36.0101584405
 20
173.5290539109
 30
0.0
 10
35.1664730172
 20
174.1455172094
 30
0.0
 10
34.4856131562
 20
174.8293643524
 30
0.0
 10
33.9832481195
 20
175.5678674059
 30
0.0
 10
33.7223819742
 20
176.2258630831
 30
0.0
 10
33.6202202419
 20
176.7553264861
 30
0.0
 10
33.6032583934
 20
177.0194984559
 30
0.0
 10
33.6032669346
 20
177.1507198662
 30
0.0
  0
SPLINE
  5
329
100
AcDbEntity
  8
0
100
AcDbSpline
 62
7
  6
CONTINUOUS
 70
0
 71
3
 72
17
 73
13
 74
0
 42
0.0000001
 43
0.0000001
 44
0.0000000001
 40
0.0
 40
0.0
 40
0.0
 40
0.0
 40
0.0428584629
 40
0.08748393
 40
0.135317815
 40
0.1872795469
 40
0.3045398917
 40
0.4382057949
 40
0.5825481992
 40
0.7297130515
 40
0.8713063844
 40
1.0
 40
1.0
 40
1.0
 40
1.0
 10
50.0655222019
 20
175.5381299008
 30
0.0
 10
50.0655248955
 20
175.5737130767
 30
0.0
 10
50.0559867723
 20
175.6466526621
 30
0.0
 10
50.0141767848
 20
175.7519828412
 30
0.0
 10
49.9462832299
 20
175.851830698
 30
0.0
 10
49.8184983273
 20
175.9800857792
 30
0.0
 10
49.6007460229
 20
176.1126329249
 30
0.0
 10
49.2876587128
 20
176.2172158303
 30
0.0
 10
48.9362948095
 20
176.266599782
 30
0.0
 10
48.5751432828
 20
176.2566023457
 30
0.0
 10
48.2336801808
 20
176.1883003261
 30
0.0
 10
48.0241722551
 20
176.1018544453
 30
0.0
 10
47.9316393068
 20
176.0484308416
 30
0.0
  0
SPLINE
  5
32A
100
AcDbEntity
  8
0
100
AcDbSpline
 62
7
  6
CONTINUOUS
 70
0
 71
3
 72
16
 73
12
 74
0
 42
0.0000001
 43
0.0000001
 44
0.0000000001
 40
0.0
 40
0.0
 40
0.0
 40
0.0
 40
0.0428749215
 40
0.0875218052
 40
0.1869210508
 40
0.3042319763
 40
0.4379526978
 40
0.5823548967
 40
0.7295670544
 40
0.8712583699
 40
1.0
 40
1.0
 40
1.0
 40
1.0
 10
46.5454434568
 20
172.9928772711
 30
0.0
 10
46.5454437162
 20
173.0071096734
 30
0.0
 10
46.5416641933
 20
173.0362905499
 30
0.0
 10
46.5185295353
 20
173.0944516311
 30
0.0
 10
46.4600494739
 20
173.1616354663
 30
0.0
 10
46.359626176
 20
173.2225805595
 30
0.0
 10
46.2342978172
 20
173.2645395987
 30
0.0
 10
46.0937906088
 20
173.28424802
 30
0.0
 10
45.9493166623
 20
173.2802785479
 30
0.0
 10
45.8127341356
 20
173.2529375884
 30
0.0
 10
45.7289196724
 20
173.2183655653
 30
0.0
 10
45.691909155
 20
173.1969976607
 30
0.0
  0
SPLINE
  5
32B
100
AcDbEntity
  8
0
100
AcDbSpline
 62
7
  6
CONTINUOUS
 70
0
 71
3
 72
11
 73
7
 74
0
 42
0.0000001
 43
0.0000001
 44
0.0000000001
 40
0.0
 40
0.0
 40
0.0
 40
0.0
 40
0.2895468475
 40
0.5491384346
 40
0.782278826
 40
1.0
 40
1.0
 40
1.0
 40
1.0
 10
45.691909155
 20
173.1969976607
 30
0.0
 10
45.6699821109
 20
173.1843381515
 30
0.0
 10
45.6301912909
 20
173.1569009807
 30
0.0
 10
45.5825927945
 20
173.1069310201
 30
0.0
 10
45.5524852569
 20
173.0516096268
 30
0.0
 10
45.5454849253
 20
173.0119157039
 30
0.0
 10
45.5454845783
 20
172.9928772957
 30
0.0
  0
SPLINE
  5
32C
100
AcDbEntity
  8
0
100
AcDbSpline
 62
7
  6
CONTINUOUS
 70
0
 71
3
 72
11
 73
7
 74
0
 42
0.0000001
 43
0.0000001
 44
0.0000000001
 40
0.0
 40
0.0
 40
0.0
 40
0.0
 40
0.2897031353
 40
0.5490914015
 40
0.7822201129
 40
1.0
 40
1.0
 40
1.0
 40
1.0
 10
47.9316393068
 20
176.0484308416
 30
0.0
 10
47.8767912345
 20
176.0167644813
 30
0.0
 10
47.7772824358
 20
175.9482260327
 30
0.0
 10
47.6583532951
 20
175.8232409756
 30
0.0
 10
47.5831241814
 20
175.6849735533
 30
0.0
 10
47.5655343285
 20
175.58573951
 30
0.0
 10
47.5655307245
 20
175.538129896
 30
0.0
  0
SPLINE
  5
32D
100
AcDbEntity
  8
0
100
AcDbSpline
 62
7
  6
CONTINUOUS
 70
0
 71
3
 72
11
 73
7
 74
0
 42
0.0000001
 43
0.0000001
 44
0.0000000001
 40
0.0
 40
0.0
 40
0.0
 40
0.0
 40
0.2895468475
 40
0.5491384346
 40
0.782278826
 40
1.0
 40
1.0
 40
1.0
 40
1.0
 10
40.5180447512
 20
172.8604209329
 30
0.0
 10
40.4961177072
 20
172.8477614237
 30
0.0
 10
40.4563268872
 20
172.820324253
 30
0.0
 10
40.4087283908
 20
172.7703542923
 30
0.0
 10
40.3786208532
 20
172.715032899
 30
0.0
 10
40.3716205216
 20
172.6753389761
 30
0.0
 10
40.3716201746
 20
172.6563005679
 30
0.0
  0
SPLINE
  5
32E
100
AcDbEntity
  8
0
100
AcDbSpline
 62
7
  6
CONTINUOUS
 70
0
 71
3
 72
11
 73
7
 74
0
 42
0.0000001
 43
0.0000001
 44
0.0000000001
 40
0.0
 40
0.0
 40
0.0
 40
0.0
 40
0.2897031353
 40
0.5490914015
 40
0.7822201129
 40
1.0
 40
1.0
 40
1.0
 40
1.0
 10
46.2119862738
 20
178.885732211
 30
0.0
 10
46.1571382015
 20
178.8540658507
 30
0.0
 10
46.0576294029
 20
178.7855274021
 30
0.0
 10
45.9387002621
 20
178.6605423451
 30
0.0
 10
45.8634711484
 20
178.5222749228
 30
0.0
 10
45.8458812956
 20
178.4230408795
 30
0.0
 10
45.8458776916
 20
178.3754312655
 30
0.0
  0
SPLINE
  5
32F
100
AcDbEntity
  8
0
100
AcDbSpline
 62
7
  6
CONTINUOUS
 70
0
 71
3
 72
11
 73
7
 74
0
 42
0.0000001
 43
0.0000001
 44
0.0000000001
 40
0.0
 40
0.0
 40
0.0
 40
0.0
 40
0.2897031353
 40
0.5490914015
 40
0.7822201129
 40
1.0
 40
1.0
 40
1.0
 40
1.0
 10
41.9693632505
 20
176.4362672878
 30
0.0
 10
41.9145151782
 20
176.4046009275
 30
0.0
 10
41.8150063796
 20
176.3360624789
 30
0.0
 10
41.6960772389
 20
176.2110774219
 30
0.0
 10
41.6208481252
 20
176.0728099996
 30
0.0
 10
41.6032582723
 20
175.9735759562
 30
0.0
 10
41.6032546683
 20
175.9259663422
 30
0.0
  0
SPLINE
  5
330
100
AcDbEntity
  8
0
100
AcDbSpline
 62
7
  6
CONTINUOUS
 70
0
 71
3
 72
11
 73
7
 74
0
 42
0.0000001
 43
0.0000001
 44
0.0000000001
 40
0.0
 40
0.0
 40
0.0
 40
0.0
 40
0.2895468475
 40
0.5491384346
 40
0.782278826
 40
1.0
 40
1.0
 40
1.0
 40
1.0
 10
36.8364038131
 20
174.9859692332
 30
0.0
 10
36.8144767691
 20
174.973309724
 30
0.0
 10
36.7746859491
 20
174.9458725533
 30
0.0
 10
36.7270874526
 20
174.8959025926
 30
0.0
 10
36.696979915
 20
174.8405811994
 30
0.0
 10
36.6899795834
 20
174.8008872765
 30
0.0
 10
36.6899792364
 20
174.7818488683
 30
0.0
  0
SPLINE
  5
331
100
AcDbEntity
  8
0
100
AcDbSpline
 62
7
  6
CONTINUOUS
 70
0
 71
3
 72
11
 73
7
 74
0
 42
0.0000001
 43
0.0000001
 44
0.0000000001
 40
0.0
 40
0.0
 40
0.0
 40
0.0
 40
0.2897031353
 40
0.5490914015
 40
0.7822201129
 40
1.0
 40
1.0
 40
1.0
 40
1.0
 10
41.2975515706
 20
179.8785365333
 30
0.0
 10
41.2427034983
 20
179.846870173
 30
0.0
 10
41.1431946997
 20
179.7783317244
 30
0.0
 10
41.0242655589
 20
179.6533466674
 30
0.0
 10
40.9490364452
 20
179.5150792451
 30
0.0
 10
40.9314465923
 20
179.4158452017
 30
0.0
 10
40.9314429884
 20
179.3682355877
 30
0.0
  0
SPLINE
  5
332
100
AcDbEntity
  8
0
100
AcDbSpline
 62
7
  6
CONTINUOUS
 70
0
 71
3
 72
11
 73
7
 74
0
 42
0.0000001
 43
0.0000001
 44
0.0000000001
 40
0.0
 40
0.0
 40
0.0
 40
0.0
 40
0.2895519988
 40
0.5491419995
 40
0.7822793255
 40
1.0
 40
1.0
 40
1.0
 40
1.0
 10
37.4193370587
 20
177.9730613383
 30
0.0
 10
37.3974096058
 20
177.9604015931
 30
0.0
 10
37.3576183897
 20
177.932964313
 30
0.0
 10
37.3100201616
 20
177.8829939928
 30
0.0
 10
37.2799127394
 20
177.8276729457
 30
0.0
 10
37.2729127321
 20
177.7879793495
 30
0.0
 10
37.2729119812
 20
177.7689409687
 30
0.0
  0
SPLINE
  5
333
100
AcDbEntity
  8
0
100
AcDbSpline
 62
7
  6
CONTINUOUS
 70
0
 71
3
 72
16
 73
12
 74
0
 42
0.0000001
 43
0.0000001
 44
0.0000000001
 40
0.0
 40
0.0
 40
0.0
 40
0.0
 40
0.1447382841
 40
0.2898475463
 40
0.4308171673
 40
0.5637798739
 40
0.6862667017
 40
0.7979450756
 40
0.9010341423
 40
0.950709695
 40
1.0
 40
1.0
 40
1.0
 40
1.0
 10
56.3177193917
 20
151.8773986381
 30
0.0
 10
56.4815489704
 20
151.9015306586
 30
0.0
 10
56.8133740591
 20
151.9270626562
 30
0.0
 10
57.3068964666
 20
151.8998682753
 30
0.0
 10
57.7792421809
 20
151.8088263401
 30
0.0
 10
58.2087274434
 20
151.657168119
 30
0.0
 10
58.5765910788
 20
151.4489649824
 30
0.0
 10
58.8661090811
 20
151.1882555915
 30
0.0
 10
59.0278737578
 20
150.9257060176
 30
0.0
 10
59.0929661094
 20
150.7026912711
 30
0.0
 10
59.1039646743
 20
150.5891686426
 30
0.0
 10
59.1039646743
 20
150.5327748255
 30
0.0
  0
SPLINE
  5
334
100
AcDbEntity
  8
0
100
AcDbSpline
 62
7
  6
CONTINUOUS
 70
0
 71
3
 72
14
 73
10
 74
0
 42
0.0000001
 43
0.0000001
 44
0.0000000001
 40
0.0
 40
0.0
 40
0.0
 40
0.0
 40
0.1080475079
 40
0.218129458
 40
0.3321012995
 40
0.4515009845
 40
0.5774519083
 40
0.7107147531
 40
1.0
 40
1.0
 40
1.0
 40
1.0
 10
52.1032338793
 20
177.1507200745
 30
0.0
 10
52.1032224812
 20
176.9756058162
 30
0.0
 10
52.0728384985
 20
176.6213671675
 30
0.0
 10
51.9370799255
 20
176.0981571428
 30
0.0
 10
51.7130633566
 20
175.5861880657
 30
0.0
 10
51.4035060659
 20
175.0907426084
 30
0.0
 10
51.0119976464
 20
174.6161258055
 30
0.0
 10
50.3686779775
 20
174.0004172345
 30
0.0
 10
49.800051159
 20
173.6089164669
 30
0.0
 10
49.3940153646
 20
173.374492991
 30
0.0
  0
SPLINE
  5
335
100
AcDbEntity
  8
0
100
AcDbSpline
 62
7
  6
CONTINUOUS
 70
0
 71
3
 72
14
 73
10
 74
0
 42
0.0000001
 43
0.0000001
 44
0.0000000001
 40
0.0
 40
0.0
 40
0.0
 40
0.0
 40
0.1080477053
 40
0.2181300025
 40
0.3321016202
 40
0.4515004859
 40
0.5774546212
 40
0.7107147396
 40
1.0
 40
1.0
 40
1.0
 40
1.0
 10
53.8532455854
 20
177.15071997
 30
0.0
 10
53.853245402
 20
177.3589670787
 30
0.0
 10
53.8170501131
 20
177.7802254398
 30
0.0
 10
53.6556600589
 20
178.4024402941
 30
0.0
 10
53.3892265009
 20
179.0112648385
 30
0.0
 10
53.0211057696
 20
179.6004572557
 30
0.0
 10
52.5555120936
 20
180.1648665605
 30
0.0
 10
51.7904660819
 20
180.8970628502
 30
0.0
 10
51.1142543912
 20
181.3626315939
 30
0.0
 10
50.6313926163
 20
181.6414056629
 30
0.0
  0
SPLINE
  5
336
100
AcDbEntity
  8
0
100
AcDbSpline
 62
7
  6
CONTINUOUS
 70
0
 71
3
 72
12
 73
8
 74
0
 42
0.0000001
 43
0.0000001
 44
0.0000000001
 40
0.0
 40
0.0
 40
0.0
 40
0.0
 40
0.1084462611
 40
0.2185541828
 40
0.4508569451
 40
0.7096761289
 40
1.0
 40
1.0
 40
1.0
 40
1.0
 10
56.7379816645
 20
161.558749183
 30
0.0
 10
56.7401795842
 20
161.6102105566
 30
0.0
 10
56.7354585115
 20
161.7145511065
 30
0.0
 10
56.6885158194
 20
161.9244410202
 30
0.0
 10
56.5557816902
 20
162.1829384213
 30
0.0
 10
56.3002382886
 20
162.4567635584
 30
0.0
 10
56.0842353018
 20
162.6062771669
 30
0.0
 10
55.9648149423
 20
162.6752229838
 30
0.0
  0
SPLINE
  5
337
100
AcDbEntity
  8
0
100
AcDbSpline
 62
7
  6
CONTINUOUS
 70
0
 71
3
 72
11
 73
7
 74
0
 42
0.0000001
 43
0.0000001
 44
0.0000000001
 40
0.0
 40
0.0
 40
0.0
 40
0.0
 40
0.2179138381
 40
0.4504072943
 40
0.7094385421
 40
1.0
 40
1.0
 40
1.0
 40
1.0
 10
30.7094149715
 20
163.7048758837
 30
0.0
 10
30.7125168006
 20
163.6322507063
 30
0.0
 10
30.6914301782
 20
163.4798179136
 30
0.0
 10
30.581322773
 20
163.266301892
 30
0.0
 10
30.4017379241
 20
163.0736057173
 30
0.0
 10
30.2499023468
 20
162.9685687646
 30
0.0
 10
30.1659626433
 20
162.9201064435
 30
0.0
  0
SPLINE
  5
338
100
AcDbEntity
  8
0
100
AcDbSpline
 62
7
  6
CONTINUOUS
 70
0
 71
3
 72
12
 73
8
 74
0
 42
0.0000001
 43
0.0000001
 44
0.0000000001
 40
0.0
 40
0.0
 40
0.0
 40
0.0
 40
0.1084462611
 40
0.2185541828
 40
0.4508569451
 40
0.7096761289
 40
1.0
 40
1.0
 40
1.0
 40
1.0
 10
56.737951636
 20
165.7228222158
 30
0.0
 10
56.7401495557
 20
165.7742835894
 30
0.0
 10
56.735428483
 20
165.8786241393
 30
0.0
 10
56.6884857909
 20
166.088514053
 30
0.0
 10
56.5557516618
 20
166.3470114541
 30
0.0
 10
56.3002082601
 20
166.6208365912
 30
0.0
 10
56.0842052733
 20
166.7703501997
 30
0.0
 10
55.9647849139
 20
166.8392960166
 30
0.0
  0
SPLINE
  5
339
100
AcDbEntity
  8
0
100
AcDbSpline
 62
7
  6
CONTINUOUS
 70
0
 71
3
 72
9
 73
5
 74
0
 42
0.0000001
 43
0.0000001
 44
0.0000000001
 40
0.0
 40
0.0
 40
0.0
 40
0.0
 40
0.4916754483
 40
1.0
 40
1.0
 40
1.0
 40
1.0
 10
54.3532379657
 20
173.8847103107
 30
0.0
 10
54.3532515126
 20
174.1796434537
 30
0.0
 10
54.2828277126
 20
174.7814079052
 30
0.0
 10
54.0800641954
 20
175.3513648776
 30
0.0
 10
53.9501187554
 20
175.6272099219
 30
0.0
  0
SPLINE
  5
33A
100
AcDbEntity
  8
0
100
AcDbSpline
 62
7
  6
CONTINUOUS
 70
0
 71
3
 72
11
 73
7
 74
0
 42
0.0000001
 43
0.0000001
 44
0.0000000001
 40
0.0
 40
0.0
 40
0.0
 40
0.0
 40
0.2306873806
 40
0.4695292945
 40
0.7241992333
 40
1.0
 40
1.0
 40
1.0
 40
1.0
 10
40.6033086975
 20
142.4495405788
 30
0.0
 10
40.6033086975
 20
142.5483044438
 30
0.0
 10
40.6381975226
 20
142.7507226213
 30
0.0
 10
40.7859946758
 20
143.0280859306
 30
0.0
 10
41.0134699484
 20
143.2704372691
 30
0.0
 10
41.2014753389
 20
143.4006006313
 30
0.0
 10
41.3037342086
 20
143.4596394648
 30
0.0
  0
SPLINE
  5
33B
100
AcDbEntity
  8
0
100
AcDbSpline
 62
7
  6
CONTINUOUS
 70
0
 71
3
 72
17
 73
13
 74
0
 42
0.0000001
 43
0.0000001
 44
0.0000000001
 40
0.0
 40
0.0
 40
0.0
 40
0.0
 40
0.12732362
 40
0.2655235758
 40
0.4084844858
 40
0.548769644
 40
0.67966204
 40
0.7971290326
 40
0.8509934865
 40
0.9022152716
 40
0.9515047567
 40
1.0
 40
1.0
 40
1.0
 40
1.0
 10
41.3037342086
 20
143.4596394648
 30
0.0
 10
41.4692369916
 20
143.5551919707
 30
0.0
 10
41.8412115472
 20
143.7090737702
 30
0.0
 10
42.4455219696
 20
143.8290262406
 30
0.0
 10
43.0809895095
 20
143.8443208493
 30
0.0
 10
43.699245199
 20
143.7535016438
 30
0.0
 10
44.2541255131
 20
143.5621421529
 30
0.0
 10
44.6433525762
 20
143.3170096725
 30
0.0
 10
44.876308064
 20
143.0754147298
 30
0.0
 10
45.0042451714
 20
142.880319451
 30
0.0
 10
45.0848362493
 20
142.6697098552
 30
0.0
 10
45.1033086975
 20
142.5223293162
 30
0.0
 10
45.1033086975
 20
142.4495405788
 30
0.0
  0
SPLINE
  5
33C
100
AcDbEntity
  8
0
100
AcDbSpline
 62
7
  6
CONTINUOUS
 70
0
 71
3
 72
9
 73
5
 74
0
 42
0.0000001
 43
0.0000001
 44
0.0000000001
 40
0.0
 40
0.0
 40
0.0
 40
0.0
 40
0.495257018
 40
1.0
 40
1.0
 40
1.0
 40
1.0
 10
54.6032376674
 20
165.3114349305
 30
0.0
 10
54.6032480472
 20
165.535725094
 30
0.0
 10
54.5639564659
 20
165.989420882
 30
0.0
 10
54.4487639932
 20
166.4297636374
 30
0.0
 10
54.3737353262
 20
166.6456856577
 30
0.0
  0
SPLINE
  5
33D
100
AcDbEntity
  8
0
100
AcDbSpline
 62
7
  6
CONTINUOUS
 70
0
 71
3
 72
11
 73
7
 74
0
 42
0.0000001
 43
0.0000001
 44
0.0000000001
 40
0.0
 40
0.0
 40
0.0
 40
0.0
 40
0.2306873806
 40
0.4695292945
 40
0.7241992333
 40
1.0
 40
1.0
 40
1.0
 40
1.0
 10
26.6025361396
 20
150.5327075183
 30
0.0
 10
26.6025361396
 20
150.6314713833
 30
0.0
 10
26.6374249647
 20
150.8338895608
 30
0.0
 10
26.7852221179
 20
151.1112528701
 30
0.0
 10
27.0126973905
 20
151.3536042086
 30
0.0
 10
27.200702781
 20
151.4837675708
 30
0.0
 10
27.3029616507
 20
151.5428064043
 30
0.0
  0
SPLINE
  5
33E
100
AcDbEntity
  8
0
100
AcDbSpline
 62
7
  6
CONTINUOUS
 70
0
 71
3
 72
11
 73
7
 74
0
 42
0.0000001
 43
0.0000001
 44
0.0000000001
 40
0.0
 40
0.0
 40
0.0
 40
0.0
 40
0.230931314
 40
0.4802076677
 40
0.7399293875
 40
1.0
 40
1.0
 40
1.0
 40
1.0
 10
27.3029616507
 20
151.5428064043
 30
0.0
 10
27.446222955
 20
151.6255178632
 30
0.0
 10
27.7642765674
 20
151.763484853
 30
0.0
 10
28.282065686
 20
151.8863758002
 30
0.0
 10
28.8332540836
 20
151.9299935604
 30
0.0
 10
29.2063808607
 20
151.9043301209
 30
0.0
 10
29.390670567
 20
151.8770553994
 30
0.0
  0
SPLINE
  5
33F
100
AcDbEntity
  8
0
100
AcDbSpline
 62
7
  6
CONTINUOUS
 70
0
 71
3
 72
11
 73
7
 74
0
 42
0.0000001
 43
0.0000001
 44
0.0000000001
 40
0.0
 40
0.0
 40
0.0
 40
0.0
 40
0.2889228682
 40
0.5484192683
 40
0.782234259
 40
1.0
 40
1.0
 40
1.0
 40
1.0
 10
30.1659517067
 20
164.4366927389
 30
0.0
 10
30.2450515451
 20
164.391025459
 30
0.0
 10
30.3889526115
 20
164.2924303592
 30
0.0
 10
30.5625865275
 20
164.1135268693
 30
0.0
 10
30.6757187444
 20
163.9160707367
 30
0.0
 10
30.7064774229
 20
163.7736546528
 30
0.0
 10
30.7094149715
 20
163.7048758837
 30
0.0
  0
SPLINE
  5
340
100
AcDbEntity
  8
0
100
AcDbSpline
 62
7
  6
CONTINUOUS
 70
0
 71
3
 72
14
 73
10
 74
0
 42
0.0000001
 43
0.0000001
 44
0.0000000001
 40
0.0
 40
0.0
 40
0.0
 40
0.0
 40
0.2892820265
 40
0.4225404649
 40
0.548498026
 40
0.6678964531
 40
0.7818698434
 40
0.8919530505
 40
1.0
 40
1.0
 40
1.0
 40
1.0
 10
34.5447803197
 20
158.8815612797
 30
0.0
 10
34.0290018219
 20
159.1793393976
 30
0.0
 10
33.3066915426
 20
159.676645028
 30
0.0
 10
32.4894883194
 20
160.4587625181
 30
0.0
 10
31.992128022
 20
161.0616422185
 30
0.0
 10
31.598928756
 20
161.6910305775
 30
0.0
 10
31.3143002598
 20
162.3413578417
 30
0.0
 10
31.1419168063
 20
163.0060044225
 30
0.0
 10
31.1032529326
 20
163.4559858115
 30
0.0
 10
31.1032632233
 20
163.6784300713
 30
0.0
  0
SPLINE
  5
341
100
AcDbEntity
  8
0
100
AcDbSpline
 62
7
  6
CONTINUOUS
 70
0
 71
3
 72
16
 73
12
 74
0
 42
0.0000001
 43
0.0000001
 44
0.0000000001
 40
0.0
 40
0.0
 40
0.0
 40
0.0
 40
0.0428749215
 40
0.0875218052
 40
0.1869210508
 40
0.3042319763
 40
0.4379526978
 40
0.5823548967
 40
0.7295670544
 40
0.8712583699
 40
1.0
 40
1.0
 40
1.0
 40
1.0
 10
40.3716201746
 20
172.6563005679
 30
0.0
 10
40.3716199151
 20
172.6420681656
 30
0.0
 10
40.3753994381
 20
172.6128872891
 30
0.0
 10
40.3985340961
 20
172.5547262079
 30
0.0
 10
40.4570141575
 20
172.4875423727
 30
0.0
 10
40.5574374554
 20
172.4265972795
 30
0.0
 10
40.6827658141
 20
172.3846382403
 30
0.0
 10
40.8232730225
 20
172.364929819
 30
0.0
 10
40.9677469691
 20
172.3688992911
 30
0.0
 10
41.1043294958
 20
172.3962402506
 30
0.0
 10
41.188143959
 20
172.4308122737
 30
0.0
 10
41.2251544764
 20
172.4521801783
 30
0.0
  0
SPLINE
  5
342
100
AcDbEntity
  8
0
100
AcDbSpline
 62
7
  6
CONTINUOUS
 70
0
 71
3
 72
11
 73
7
 74
0
 42
0.0000001
 43
0.0000001
 44
0.0000000001
 40
0.0
 40
0.0
 40
0.0
 40
0.0
 40
0.2602431929
 40
0.5216769552
 40
0.7718138644
 40
1.0
 40
1.0
 40
1.0
 40
1.0
 10
56.1985281972
 20
149.2900996897
 30
0.0
 10
56.3958494154
 20
149.2554249826
 30
0.0
 10
56.7977522315
 20
149.2187256562
 30
0.0
 10
57.3930756373
 20
149.255794665
 30
0.0
 10
57.9511043559
 20
149.380992172
 30
0.0
 10
58.2928301038
 20
149.5264005173
 30
0.0
 10
58.4449615559
 20
149.6142331278
 30
0.0
  0
SPLINE
  5
343
100
AcDbEntity
  8
0
100
AcDbSpline
 62
7
  6
CONTINUOUS
 70
0
 71
3
 72
15
 73
11
 74
0
 42
0.0000001
 43
0.0000001
 44
0.0000000001
 40
0.0
 40
0.0
 40
0.0
 40
0.0
 40
0.1141447985
 40
0.2373324971
 40
0.3669747555
 40
0.5000005214
 40
0.6330262147
 40
0.7626682613
 40
0.8858556261
 40
1.0
 40
1.0
 40
1.0
 40
1.0
 10
41.2623250638
 20
141.5309912326
 30
0.0
 10
41.3712317849
 20
141.4681153303
 30
0.0
 10
41.6094066971
 20
141.3572213747
 30
0.0
 10
41.9972354048
 20
141.2393205853
 30
0.0
 10
42.4171454481
 20
141.1667900425
 30
0.0
 10
42.8533180045
 20
141.1422903774
 30
0.0
 10
43.2894902123
 20
141.1667921127
 30
0.0
 10
43.7093992255
 20
141.2393246492
 30
0.0
 10
44.0972262634
 20
141.3572272822
 30
0.0
 10
44.3353997165
 20
141.4681224274
 30
0.0
 10
44.4443055791
 20
141.5309988812
 30
0.0
  0
SPLINE
  5
344
100
AcDbEntity
  8
0
100
AcDbSpline
 62
7
  6
CONTINUOUS
 70
0
 71
3
 72
11
 73
7
 74
0
 42
0.0000001
 43
0.0000001
 44
0.0000000001
 40
0.0
 40
0.0
 40
0.0
 40
0.0
 40
0.2897733512
 40
0.5490657165
 40
0.7822241652
 40
1.0
 40
1.0
 40
1.0
 40
1.0
 10
44.4443055791
 20
141.5309988812
 30
0.0
 10
44.5430568481
 20
141.5880126126
 30
0.0
 10
44.7221948096
 20
141.7113431894
 30
0.0
 10
44.9362201445
 20
141.9363636198
 30
0.0
 10
45.0716495799
 20
142.1852048822
 30
0.0
 10
45.1032981873
 20
142.3638441648
 30
0.0
 10
45.1032981862
 20
142.4495405788
 30
0.0
  0
SPLINE
  5
345
100
AcDbEntity
  8
0
100
AcDbSpline
 62
7
  6
CONTINUOUS
 70
0
 71
3
 72
23
 73
19
 74
0
 42
0.0000001
 43
0.0000001
 44
0.0000000001
 40
0.0
 40
0.0
 40
0.0
 40
0.0
 40
0.0589893834
 40
0.1117720617
 40
0.1595299525
 40
0.2046537827
 40
0.2503482055
 40
0.2996317771
 40
0.3544786537
 40
0.4156360744
 40
0.4828424729
 40
0.5551099379
 40
0.6309611432
 40
0.7086166698
 40
0.7861649867
 40
0.8616878886
 40
0.933454951
 40
1.0
 40
1.0
 40
1.0
 40
1.0
 10
41.3407483704
 20
143.4117067622
 30
0.0
 10
41.2561313339
 20
143.3582830625
 30
0.0
 10
41.1034858454
 20
143.243541547
 30
0.0
 10
40.9252223882
 20
143.0365544272
 30
0.0
 10
40.8182938439
 20
142.8096459667
 30
0.0
 10
40.7910601252
 20
142.5715252775
 30
0.0
 10
40.8465831059
 20
142.3359219507
 30
0.0
 10
40.9791159236
 20
142.1151718886
 30
0.0
 10
41.1800994785
 20
141.9163779855
 30
0.0
 10
41.4412104677
 20
141.7448050276
 30
0.0
 10
41.753120906
 20
141.6055446647
 30
0.0
 10
42.1048046582
 20
141.5031809897
 30
0.0
 10
42.483655104
 20
141.4412899149
 30
0.0
 10
42.8759622739
 20
141.4220754459
 30
0.0
 10
43.2674293081
 20
141.4462661958
 30
0.0
 10
43.643893163
 20
141.5129416938
 30
0.0
 10
43.9915404474
 20
141.6197350209
 30
0.0
 10
44.2051194266
 20
141.7195036609
 30
0.0
 10
44.3028836341
 20
141.7759475155
 30
0.0
  0
SPLINE
  5
346
100
AcDbEntity
  8
0
100
AcDbSpline
 62
7
  6
CONTINUOUS
 70
0
 71
3
 72
23
 73
19
 74
0
 42
0.0000001
 43
0.0000001
 44
0.0000000001
 40
0.0
 40
0.0
 40
0.0
 40
0.0
 40
0.0603740006
 40
0.1143968843
 40
0.1629741129
 40
0.2083455635
 40
0.2537153984
 40
0.3022966916
 40
0.3563104963
 40
0.4166899811
 40
0.4832771637
 40
0.5551236262
 40
0.6307484028
 40
0.7083394996
 40
0.7859345399
 40
0.8615576614
 40
0.933416964
 40
1.0
 40
1.0
 40
1.0
 40
1.0
 10
44.3028836341
 20
141.7759475155
 30
0.0
 10
44.3928583901
 20
141.827894155
 30
0.0
 10
44.5560741872
 20
141.9402802822
 30
0.0
 10
44.7510751515
 20
142.1452379397
 30
0.0
 10
44.8744635814
 20
142.3721586539
 30
0.0
 10
44.9172169184
 20
142.6128374352
 30
0.0
 10
44.8744687303
 20
142.8535309163
 30
0.0
 10
44.7510722512
 20
143.0804180492
 30
0.0
 10
44.5560377451
 20
143.2854322453
 30
0.0
 10
44.2980753872
 20
143.4630693147
 30
0.0
 10
43.9867226747
 20
143.6080307919
 30
0.0
 10
43.6332772321
 20
143.7154772799
 30
0.0
 10
43.2507391668
 20
143.7815680457
 30
0.0
 10
42.8533295545
 20
143.8038861899
 30
0.0
 10
42.455933083
 20
143.7815690739
 30
0.0
 10
42.0733384818
 20
143.7154875103
 30
0.0
 10
41.7199730813
 20
143.608063185
 30
0.0
 10
41.502961779
 20
143.50702359
 30
0.0
 10
41.403733761
 20
143.449734609
 30
0.0
  0
SPLINE
  5
347
100
AcDbEntity
  8
0
100
AcDbSpline
 62
7
  6
CONTINUOUS
 70
0
 71
3
 72
11
 73
7
 74
0
 42
0.0000001
 43
0.0000001
 44
0.0000000001
 40
0.0
 40
0.0
 40
0.0
 40
0.0
 40
0.2281866977
 40
0.4783239285
 40
0.7397575564
 40
1.0
 40
1.0
 40
1.0
 40
1.0
 10
27.2615525059
 20
149.6141581721
 30
0.0
 10
27.4136860479
 20
149.5263258177
 30
0.0
 10
27.7554158406
 20
149.3809185156
 30
0.0
 10
28.3134499285
 20
149.2557236981
 30
0.0
 10
28.9087774055
 20
149.2186585876
 30
0.0
 10
29.3106821462
 20
149.2553612719
 30
0.0
 10
29.5080038911
 20
149.2900378799
 30
0.0
  0
SPLINE
  5
348
100
AcDbEntity
  8
0
100
AcDbSpline
 62
7
  6
CONTINUOUS
 70
0
 71
3
 72
20
 73
16
 74
0
 42
0.0000001
 43
0.0000001
 44
0.0000000001
 40
0.0
 40
0.0
 40
0.0
 40
0.0
 40
0.0608462325
 40
0.1162447112
 40
0.1668377353
 40
0.2140712514
 40
0.2600524966
 40
0.3072069475
 40
0.3576715356
 40
0.4128916757
 40
0.4735375142
 40
0.5396064457
 40
0.6853452217
 40
0.8424115937
 40
1.0
 40
1.0
 40
1.0
 40
1.0
 10
27.3399758125
 20
151.4948737017
 30
0.0
 10
27.2676427943
 20
151.4492056234
 30
0.0
 10
27.1352317801
 20
151.3520305943
 30
0.0
 10
26.9724909872
 20
151.1811332
 30
0.0
 10
26.8595112977
 20
150.9953917161
 30
0.0
 10
26.8007823971
 20
150.7992996176
 30
0.0
 10
26.7998420839
 20
150.5991753215
 30
0.0
 10
26.8567296642
 20
150.4028275333
 30
0.0
 10
26.9680411768
 20
150.216699043
 30
0.0
 10
27.1292392963
 20
150.0452590894
 30
0.0
 10
27.3355184804
 20
149.8921298144
 30
0.0
 10
27.6743786305
 20
149.7111952602
 30
0.0
 10
28.1748411354
 20
149.5574183772
 30
0.0
 10
28.8220920331
 20
149.4921502978
 30
0.0
 10
29.2661770244
 20
149.5293117231
 30
0.0
 10
29.4839605757
 20
149.5700020186
 30
0.0
  0
SPLINE
  5
349
100
AcDbEntity
  8
0
100
AcDbSpline
 62
7
  6
CONTINUOUS
 70
0
 71
3
 72
11
 73
7
 74
0
 42
0.0000001
 43
0.0000001
 44
0.0000000001
 40
0.0
 40
0.0
 40
0.0
 40
0.0
 40
0.2610080061
 40
0.5222851752
 40
0.7719705141
 40
1.0
 40
1.0
 40
1.0
 40
1.0
 10
29.3978339602
 20
151.836909943
 30
0.0
 10
29.2215435914
 20
151.8649867357
 30
0.0
 10
28.8637744771
 20
151.8929312604
 30
0.0
 10
28.335190016
 20
151.8550181168
 30
0.0
 10
27.8407366822
 20
151.7407528446
 30
0.0
 10
27.5380241827
 20
151.6108797307
 30
0.0
 10
27.402961203
 20
151.5329015485
 30
0.0
  0
SPLINE
  5
34A
100
AcDbEntity
  8
0
100
AcDbSpline
 62
7
  6
CONTINUOUS
 70
0
 71
3
 72
17
 73
13
 74
0
 42
0.0000001
 43
0.0000001
 44
0.0000000001
 40
0.0
 40
0.0
 40
0.0
 40
0.0
 40
0.0428584629
 40
0.08748393
 40
0.135317815
 40
0.1872795469
 40
0.3045398917
 40
0.4382057949
 40
0.5825481992
 40
0.7297130515
 40
0.8713063844
 40
1.0
 40
1.0
 40
1.0
 40
1.0
 10
47.5655307245
 20
175.538129896
 30
0.0
 10
47.5655280309
 20
175.5025467201
 30
0.0
 10
47.5750661541
 20
175.4296071347
 30
0.0
 10
47.6168761416
 20
175.3242769556
 30
0.0
 10
47.6847696964
 20
175.2244290989
 30
0.0
 10
47.8125545991
 20
175.0961740176
 30
0.0
 10
48.0303069035
 20
174.963626872
 30
0.0
 10
48.3433942136
 20
174.8590439665
 30
0.0
 10
48.6947581169
 20
174.8096600148
 30
0.0
 10
49.0559096436
 20
174.8196574512
 30
0.0
 10
49.3973727456
 20
174.8879594707
 30
0.0
 10
49.6068806713
 20
174.9744053515
 30
0.0
 10
49.6994136196
 20
175.0278289553
 30
0.0
  0
SPLINE
  5
34B
100
AcDbEntity
  8
0
100
AcDbSpline
 62
7
  6
CONTINUOUS
 70
0
 71
3
 72
25
 73
21
 74
0
 42
0.0000001
 43
0.0000001
 44
0.0000000001
 40
0.0
 40
0.0
 40
0.0
 40
0.0
 40
0.0623834472
 40
0.128722646
 40
0.1983154334
 40
0.2702920064
 40
0.3436694636
 40
0.4174014889
 40
0.4904260862
 40
0.5617127189
 40
0.630310104
 40
0.695397909
 40
0.7563457419
 40
0.8127832119
 40
0.8646838034
 40
0.9124584855
 40
0.9351029042
 40
0.9571080575
 40
0.978668194
 40
1.0
 40
1.0
 40
1.0
 40
1.0
 10
34.5447803197
 20
160.514566114
 30
0.0
 10
34.9669376026
 20
160.2708390069
 30
0.0
 10
35.871621729
 20
159.8247859695
 30
0.0
 10
37.330995312
 20
159.2960149988
 30
0.0
 10
38.9080574331
 20
158.8956617026
 30
0.0
 10
40.5690808226
 20
158.6322857209
 30
0.0
 10
42.2788331016
 20
158.5114235708
 30
0.0
 10
44.000835651
 20
158.5356583928
 30
0.0
 10
45.6983580503
 20
158.7044716493
 30
0.0
 10
47.335227162
 20
159.0142737421
 30
0.0
 10
48.8766692912
 20
159.4585162277
 30
0.0
 10
50.2901028543
 20
160.027946549
 30
0.0
 10
51.5458182208
 20
160.7109025842
 30
0.0
 10
52.6175622892
 20
161.4940989557
 30
0.0
 10
53.4823625167
 20
162.3623705041
 30
0.0
 10
54.0237270349
 20
163.1589871579
 30
0.0
 10
54.3253925341
 20
163.8167098775
 30
0.0
 10
54.4853255637
 20
164.3100746529
 30
0.0
 10
54.5817238352
 20
164.8092060393
 30
0.0
 10
54.6032299534
 20
165.1447488047
 30
0.0
 10
54.6032376674
 20
165.3114349305
 30
0.0
  0
SPLINE
  5
34C
100
AcDbEntity
  8
0
100
AcDbSpline
 62
7
  6
CONTINUOUS
 70
0
 71
3
 72
14
 73
10
 74
0
 42
0.0000001
 43
0.0000001
 44
0.0000000001
 40
0.0
 40
0.0
 40
0.0
 40
0.0
 40
0.289280379
 40
0.4225387331
 40
0.5484964493
 40
0.6678946053
 40
0.7818677127
 40
0.8919517501
 40
1.0
 40
1.0
 40
1.0
 40
1.0
 10
34.721556279
 20
160.6166271524
 30
0.0
 10
34.2167546686
 20
160.9080679048
 30
0.0
 10
33.5098156131
 20
161.3947903716
 30
0.0
 10
32.7100006649
 20
162.1602634764
 30
0.0
 10
32.2232220746
 20
162.7503150643
 30
0.0
 10
31.8383874635
 20
163.3663103243
 30
0.0
 10
31.5598126092
 20
164.0028005879
 30
0.0
 10
31.3910964193
 20
164.6533093974
 30
0.0
 10
31.3532527221
 20
165.0937208778
 30
0.0
 10
31.353263086
 20
165.3114349006
 30
0.0
  0
SPLINE
  5
34D
100
AcDbEntity
  8
0
100
AcDbSpline
 62
7
  6
CONTINUOUS
 70
0
 71
3
 72
17
 73
13
 74
0
 42
0.0000001
 43
0.0000001
 44
0.0000000001
 40
0.0
 40
0.0
 40
0.0
 40
0.0
 40
0.0428584629
 40
0.08748393
 40
0.135317815
 40
0.1872795469
 40
0.3045398917
 40
0.4382057949
 40
0.5825481992
 40
0.7297130515
 40
0.8713063844
 40
1.0
 40
1.0
 40
1.0
 40
1.0
 10
40.9314429884
 20
179.3682355877
 30
0.0
 10
40.9314402948
 20
179.3326524118
 30
0.0
 10
40.9409784179
 20
179.2597128264
 30
0.0
 10
40.9827884054
 20
179.1543826474
 30
0.0
 10
41.0506819603
 20
179.0545347906
 30
0.0
 10
41.1784668629
 20
178.9262797093
 30
0.0
 10
41.3962191674
 20
178.7937325637
 30
0.0
 10
41.7093064774
 20
178.6891496583
 30
0.0
 10
42.0606703808
 20
178.6397657065
 30
0.0
 10
42.4218219074
 20
178.6497631429
 30
0.0
 10
42.7632850094
 20
178.7180651625
 30
0.0
 10
42.9727929351
 20
178.8045110433
 30
0.0
 10
43.0653258835
 20
178.857934647
 30
0.0
  0
SPLINE
  5
34E
100
AcDbEntity
  8
0
100
AcDbSpline
 62
7
  6
CONTINUOUS
 70
0
 71
3
 72
25
 73
21
 74
0
 42
0.0000001
 43
0.0000001
 44
0.0000000001
 40
0.0
 40
0.0
 40
0.0
 40
0.0
 40
0.0623831293
 40
0.1287221839
 40
0.1983150093
 40
0.2702913821
 40
0.3436695754
 40
0.4174024869
 40
0.4904278542
 40
0.5617152222
 40
0.6303122636
 40
0.6953990726
 40
0.7563462899
 40
0.8127836064
 40
0.8646841545
 40
0.912458724
 40
0.9351030798
 40
0.9571081634
 40
0.9786682455
 40
1.0
 40
1.0
 40
1.0
 40
1.0
 10
34.721556279
 20
169.1899025323
 30
0.0
 10
35.1347293826
 20
168.9513623262
 30
0.0
 10
36.0201614256
 20
168.5148007942
 30
0.0
 10
37.4484812519
 20
167.9972808301
 30
0.0
 10
38.991986292
 20
167.6054452296
 30
0.0
 10
40.6176728748
 20
167.3476709793
 30
0.0
 10
42.2910583522
 20
167.2293796279
 30
0.0
 10
43.9764408627
 20
167.2531003695
 30
0.0
 10
45.6378637585
 20
167.4183264417
 30
0.0
 10
47.2399137034
 20
167.7215436292
 30
0.0
 10
48.748553409
 20
168.1563373514
 30
0.0
 10
50.1318985492
 20
168.7136500044
 30
0.0
 10
51.3608834711
 20
169.3820707322
 30
0.0
 10
52.4098183875
 20
170.1486010059
 30
0.0
 10
53.2562161424
 20
170.9983979434
 30
0.0
 10
53.7860596733
 20
171.7780648015
 30
0.0
 10
54.081306715
 20
172.4217914314
 30
0.0
 10
54.2378347924
 20
172.9046582331
 30
0.0
 10
54.3321828032
 20
173.3931682584
 30
0.0
 10
54.3532304724
 20
173.721571093
 30
0.0
 10
54.3532379657
 20
173.8847103107
 30
0.0
  0
SPLINE
  5
34F
100
AcDbEntity
  8
0
100
AcDbSpline
 62
7
  6
CONTINUOUS
 70
0
 71
3
 72
14
 73
10
 74
0
 42
0.0000001
 43
0.0000001
 44
0.0000000001
 40
0.0
 40
0.0
 40
0.0
 40
0.0
 40
0.2892813285
 40
0.4225408356
 40
0.5484954049
 40
0.6678948454
 40
0.7818674214
 40
0.8919509063
 40
1.0
 40
1.0
 40
1.0
 40
1.0
 10
35.0751081976
 20
169.3940246092
 30
0.0
 10
34.592252983
 20
169.6727948908
 30
0.0
 10
33.9160485679
 20
170.1383581842
 30
0.0
 10
33.1510052214
 20
170.8705456936
 30
0.0
 10
32.6854084747
 20
171.434953522
 30
0.0
 10
32.317283636
 20
172.0241478196
 30
0.0
 10
32.0508449009
 20
172.6329758897
 30
0.0
 10
31.8894521838
 20
173.255197247
 30
0.0
 10
31.8532561807
 20
173.6764605164
 30
0.0
 10
31.8532555077
 20
173.8847103021
 30
0.0
  0
SPLINE
  5
350
100
AcDbEntity
  8
0
100
AcDbSpline
 62
7
  6
CONTINUOUS
 70
0
 71
3
 72
24
 73
20
 74
0
 42
0.0000001
 43
0.0000001
 44
0.0000000001
 40
0.0
 40
0.0
 40
0.0
 40
0.0
 40
0.0623868734
 40
0.1287323591
 40
0.1983295573
 40
0.270311356
 40
0.3436948119
 40
0.4174333854
 40
0.49046413
 40
0.5617566523
 40
0.6303593675
 40
0.6954519168
 40
0.7564040103
 40
0.812845362
 40
0.8647495351
 40
0.912527572
 40
0.9571049134
 40
0.9786665731
 40
1.0
 40
1.0
 40
1.0
 40
1.0
 10
35.0751081976
 20
172.6600342777
 30
0.0
 10
35.4703110286
 20
172.4318689787
 30
0.0
 10
36.3172509832
 20
172.0142922512
 30
0.0
 10
37.6834627524
 20
171.5192628705
 30
0.0
 10
39.1598658848
 20
171.1444765758
 30
0.0
 10
40.7148599459
 20
170.8979027239
 30
0.0
 10
42.3154884531
 20
170.7847617579
 30
0.0
 10
43.9275905319
 20
170.8074475634
 30
0.0
 10
45.5167752726
 20
170.9654911445
 30
0.0
 10
47.0491716305
 20
171.2555215261
 30
0.0
 10
48.492226661
 20
171.6714150015
 30
0.0
 10
49.8154350505
 20
172.2044898362
 30
0.0
 10
50.9909987892
 20
172.8438855922
 30
0.0
 10
51.9943017173
 20
173.5769727153
 30
0.0
 10
52.803978635
 20
174.3901932229
 30
0.0
 10
53.4013767665
 20
175.2684136233
 30
0.0
 10
53.7116227429
 20
176.0508885538
 30
0.0
 10
53.8330488084
 20
176.6805291326
 30
0.0
 10
53.8532457228
 20
176.9946733518
 30
0.0
 10
53.8532455854
 20
177.15071997
 30
0.0
  0
SPLINE
  5
351
100
AcDbEntity
  8
0
100
AcDbSpline
 62
7
  6
CONTINUOUS
 70
0
 71
3
 72
24
 73
20
 74
0
 42
0.0000001
 43
0.0000001
 44
0.0000000001
 40
0.0
 40
0.0
 40
0.0
 40
0.0
 40
0.0623854284
 40
0.128733111
 40
0.1983292436
 40
0.2703113753
 40
0.3436941371
 40
0.4174328989
 40
0.4904637959
 40
0.5617566051
 40
0.630359599
 40
0.6954522686
 40
0.7564043095
 40
0.8128455068
 40
0.8647495069
 40
0.9125274261
 40
0.9571046932
 40
0.9786665716
 40
1.0
 40
1.0
 40
1.0
 40
1.0
 10
36.3124854494
 20
180.9269469496
 30
0.0
 10
36.6448069866
 20
181.1188117334
 30
0.0
 10
37.357013565
 20
181.46995639
 30
0.0
 10
38.5058685186
 20
181.8862503159
 30
0.0
 10
39.7474047904
 20
182.201403192
 30
0.0
 10
41.0550059739
 20
182.4087624205
 30
0.0
 10
42.4009921178
 20
182.5039039088
 30
0.0
 10
43.7566250858
 20
182.4848374145
 30
0.0
 10
45.092993517
 20
182.351943385
 30
0.0
 10
46.3816090244
 20
182.1080601019
 30
0.0
 10
47.5950961579
 20
181.7583338617
 30
0.0
 10
48.707799407
 20
181.3100639003
 30
0.0
 10
49.6963423734
 20
180.7723860297
 30
0.0
 10
50.5400277968
 20
180.1559227313
 30
0.0
 10
51.2208876577
 20
179.4720755883
 30
0.0
 10
51.7232526944
 20
178.7335725348
 30
0.0
 10
51.9841188397
 20
178.0755768576
 30
0.0
 10
52.086280572
 20
177.5461134546
 30
0.0
 10
52.1032424205
 20
177.2819414847
 30
0.0
 10
52.1032338793
 20
177.1507200745
 30
0.0
  0
SPLINE
  5
352
100
AcDbEntity
  8
0
100
AcDbSpline
 62
7
  6
CONTINUOUS
 70
0
 71
3
 72
16
 73
12
 74
0
 42
0.0000001
 43
0.0000001
 44
0.0000000001
 40
0.0
 40
0.0
 40
0.0
 40
0.0
 40
0.0428749215
 40
0.0875218052
 40
0.1869210508
 40
0.3042319763
 40
0.4379526978
 40
0.5823548967
 40
0.7295670544
 40
0.8712583699
 40
1.0
 40
1.0
 40
1.0
 40
1.0
 10
45.5454845783
 20
172.9928772957
 30
0.0
 10
45.5454843188
 20
172.9786448934
 30
0.0
 10
45.5492638418
 20
172.9494640169
 30
0.0
 10
45.5723984998
 20
172.8913029357
 30
0.0
 10
45.6308785612
 20
172.8241191005
 30
0.0
 10
45.7313018591
 20
172.7631740072
 30
0.0
 10
45.8566302179
 20
172.7212149681
 30
0.0
 10
45.9971374262
 20
172.7015065468
 30
0.0
 10
46.1416113728
 20
172.7054760189
 30
0.0
 10
46.2781938995
 20
172.7328169784
 30
0.0
 10
46.3620083627
 20
172.7673890015
 30
0.0
 10
46.3990188801
 20
172.7887569061
 30
0.0
  0
SPLINE
  5
353
100
AcDbEntity
  8
0
100
AcDbSpline
 62
7
  6
CONTINUOUS
 70
0
 71
3
 72
9
 73
5
 74
0
 42
0.0000001
 43
0.0000001
 44
0.0000000001
 40
0.0
 40
0.0
 40
0.0
 40
0.0
 40
0.2581074888
 40
1.0
 40
1.0
 40
1.0
 40
1.0
 10
41.5831997336
 20
172.2025615109
 30
0.0
 10
41.5633983858
 20
172.2087913747
 30
0.0
 10
41.4871419239
 20
172.2343480013
 30
0.0
 10
41.412764974
 20
172.2656752017
 30
0.0
 10
41.3594783742
 20
172.2925198588
 30
0.0
  0
SPLINE
  5
354
100
AcDbEntity
  8
0
100
AcDbSpline
 62
7
  6
CONTINUOUS
 70
0
 71
3
 72
11
 73
7
 74
0
 42
0.0000001
 43
0.0000001
 44
0.0000000001
 40
0.0
 40
0.0
 40
0.0
 40
0.0
 40
0.2895468475
 40
0.5491384346
 40
0.782278826
 40
1.0
 40
1.0
 40
1.0
 40
1.0
 10
46.3990188801
 20
172.7887569061
 30
0.0
 10
46.4209459241
 20
172.8014164153
 30
0.0
 10
46.4607367441
 20
172.828853586
 30
0.0
 10
46.5083352406
 20
172.8788235467
 30
0.0
 10
46.5384427782
 20
172.93414494
 30
0.0
 10
46.5454431097
 20
172.9738388629
 30
0.0
 10
46.5454434568
 20
172.9928772711
 30
0.0
  0
SPLINE
  5
355
100
AcDbEntity
  8
0
100
AcDbSpline
 62
7
  6
CONTINUOUS
 70
0
 71
3
 72
11
 73
7
 74
0
 42
0.0000001
 43
0.0000001
 44
0.0000000001
 40
0.0
 40
0.0
 40
0.0
 40
0.0
 40
0.2897031353
 40
0.5490914015
 40
0.7822201129
 40
1.0
 40
1.0
 40
1.0
 40
1.0
 10
49.6994136196
 20
175.0278289553
 30
0.0
 10
49.7542616919
 20
175.0594953155
 30
0.0
 10
49.8537704906
 20
175.1280337642
 30
0.0
 10
49.9726996313
 20
175.2530188212
 30
0.0
 10
50.047928745
 20
175.3912862435
 30
0.0
 10
50.0655185979
 20
175.4905202868
 30
0.0
 10
50.0655222019
 20
175.5381299008
 30
0.0
  0
SPLINE
  5
356
100
AcDbEntity
  8
0
100
AcDbSpline
 62
7
  6
CONTINUOUS
 70
0
 71
3
 72
11
 73
7
 74
0
 42
0.0000001
 43
0.0000001
 44
0.0000000001
 40
0.0
 40
0.0
 40
0.0
 40
0.0
 40
0.2594898894
 40
0.5210570094
 40
0.7716326248
 40
1.0
 40
1.0
 40
1.0
 40
1.0
 10
56.2104594764
 20
149.5723519978
 30
0.0
 10
56.3932281475
 20
149.537472937
 30
0.0
 10
56.7668018569
 20
149.4989238021
 30
0.0
 10
57.3215248274
 20
149.5287466302
 30
0.0
 10
57.8425515748
 20
149.6425052321
 30
0.0
 10
58.1617271799
 20
149.7773068057
 30
0.0
 10
58.3035396109
 20
149.8591817621
 30
0.0
  0
SPLINE
  5
357
100
AcDbEntity
  8
0
100
AcDbSpline
 62
7
  6
CONTINUOUS
 70
0
 71
3
 72
11
 73
7
 74
0
 42
0.0000001
 43
0.0000001
 44
0.0000000001
 40
0.0
 40
0.0
 40
0.0
 40
0.0
 40
0.2895468475
 40
0.5491384346
 40
0.782278826
 40
1.0
 40
1.0
 40
1.0
 40
1.0
 10
41.2251544764
 20
172.4521801783
 30
0.0
 10
41.2470815204
 20
172.4648396875
 30
0.0
 10
41.2868723404
 20
172.4922768583
 30
0.0
 10
41.3344708369
 20
172.5422468189
 30
0.0
 10
41.3645783744
 20
172.5975682122
 30
0.0
 10
41.371578706
 20
172.6372621351
 30
0.0
 10
41.3715790531
 20
172.6563005433
 30
0.0
  0
SPLINE
  5
358
100
AcDbEntity
  8
0
100
AcDbSpline
 62
7
  6
CONTINUOUS
 70
0
 71
3
 72
20
 73
16
 74
0
 42
0.0000001
 43
0.0000001
 44
0.0000000001
 40
0.0
 40
0.0
 40
0.0
 40
0.0
 40
0.062543892
 40
0.1196254743
 40
0.1716195437
 40
0.2197760316
 40
0.2660395707
 40
0.3128122995
 40
0.3623705262
 40
0.4163772144
 40
0.4757116294
 40
0.5405426823
 40
0.6844970909
 40
0.8411849668
 40
1.0
 40
1.0
 40
1.0
 40
1.0
 10
58.3035396109
 20
149.8591817621
 30
0.0
 10
58.3793304042
 20
149.9029393359
 30
0.0
 10
58.5189559929
 20
149.9966250277
 30
0.0
 10
58.6942839018
 20
150.1626366328
 30
0.0
 10
58.8212381348
 20
150.3445610486
 30
0.0
 10
58.8952142934
 20
150.5381585718
 30
0.0
 10
58.9122219257
 20
150.7377524321
 30
0.0
 10
58.8711277168
 20
150.9356982785
 30
0.0
 10
58.7745685916
 20
151.1250091103
 30
0.0
 10
58.6268960668
 20
151.3007481829
 30
0.0
 10
58.4328500913
 20
151.4591972774
 30
0.0
 10
58.1079983385
 20
151.6492407719
 30
0.0
 10
57.6190425616
 20
151.8160124748
 30
0.0
 10
56.9780462465
 20
151.8979006551
 30
0.0
 10
56.5340983139
 20
151.8724628437
 30
0.0
 10
56.314576229
 20
151.8379118742
 30
0.0
  0
SPLINE
  5
359
100
AcDbEntity
  8
0
100
AcDbSpline
 62
7
  6
CONTINUOUS
 70
0
 71
3
 72
11
 73
7
 74
0
 42
0.0000001
 43
0.0000001
 44
0.0000000001
 40
0.0
 40
0.0
 40
0.0
 40
0.0
 40
0.2897031353
 40
0.5490914015
 40
0.7822201129
 40
1.0
 40
1.0
 40
1.0
 40
1.0
 10
47.9797605867
 20
177.8651303247
 30
0.0
 10
48.034608659
 20
177.896796685
 30
0.0
 10
48.1341174576
 20
177.9653351336
 30
0.0
 10
48.2530465983
 20
178.0903201907
 30
0.0
 10
48.3282757121
 20
178.228587613
 30
0.0
 10
48.3458655649
 20
178.3278216563
 30
0.0
 10
48.3458691689
 20
178.3754312703
 30
0.0
  0
SPLINE
  5
35A
100
AcDbEntity
  8
0
100
AcDbSpline
 62
7
  6
CONTINUOUS
 70
0
 71
3
 72
11
 73
7
 74
0
 42
0.0000001
 43
0.0000001
 44
0.0000000001
 40
0.0
 40
0.0
 40
0.0
 40
0.0
 40
0.2897031353
 40
0.5490914015
 40
0.7822201129
 40
1.0
 40
1.0
 40
1.0
 40
1.0
 10
43.7371375634
 20
175.4156654015
 30
0.0
 10
43.7919856357
 20
175.4473317618
 30
0.0
 10
43.8914944343
 20
175.5158702104
 30
0.0
 10
44.0104235751
 20
175.6408552674
 30
0.0
 10
44.0856526888
 20
175.7791226897
 30
0.0
 10
44.1032425417
 20
175.8783567331
 30
0.0
 10
44.1032461456
 20
175.925966347
 30
0.0
  0
SPLINE
  5
35B
100
AcDbEntity
  8
0
100
AcDbSpline
 62
7
  6
CONTINUOUS
 70
0
 71
3
 72
16
 73
12
 74
0
 42
0.0000001
 43
0.0000001
 44
0.0000000001
 40
0.0
 40
0.0
 40
0.0
 40
0.0
 40
0.0428749215
 40
0.0875218052
 40
0.1869210508
 40
0.3042319763
 40
0.4379526978
 40
0.5823548967
 40
0.7295670544
 40
0.8712583699
 40
1.0
 40
1.0
 40
1.0
 40
1.0
 10
36.6899792364
 20
174.7818488683
 30
0.0
 10
36.689978977
 20
174.767616466
 30
0.0
 10
36.6937584999
 20
174.7384355895
 30
0.0
 10
36.7168931579
 20
174.6802745083
 30
0.0
 10
36.7753732193
 20
174.6130906731
 30
0.0
 10
36.8757965172
 20
174.5521455798
 30
0.0
 10
37.001124876
 20
174.5101865407
 30
0.0
 10
37.1416320843
 20
174.4904781194
 30
0.0
 10
37.2861060309
 20
174.4944475914
 30
0.0
 10
37.4226885576
 20
174.5217885509
 30
0.0
 10
37.5065030208
 20
174.5563605741
 30
0.0
 10
37.5435135382
 20
174.5777284787
 30
0.0
  0
SPLINE
  5
35C
100
AcDbEntity
  8
0
100
AcDbSpline
 62
7
  6
CONTINUOUS
 70
0
 71
3
 72
11
 73
7
 74
0
 42
0.0000001
 43
0.0000001
 44
0.0000000001
 40
0.0
 40
0.0
 40
0.0
 40
0.0
 40
0.2177227832
 40
0.4508712161
 40
0.7104668615
 40
1.0
 40
1.0
 40
1.0
 40
1.0
 10
38.2728700746
 20
172.8699264221
 30
0.0
 10
38.2728708097
 20
172.8508879167
 30
0.0
 10
38.2658695009
 20
172.8111931291
 30
0.0
 10
38.2357617251
 20
172.7558707937
 30
0.0
 10
38.1881624733
 20
172.7059018509
 30
0.0
 10
38.1483727396
 20
172.6784649619
 30
0.0
 10
38.1264467838
 20
172.665806081
 30
0.0
  0
SPLINE
  5
35D
100
AcDbEntity
  8
0
100
AcDbSpline
 62
7
  6
CONTINUOUS
 70
0
 71
3
 72
11
 73
7
 74
0
 42
0.0000001
 43
0.0000001
 44
0.0000000001
 40
0.0
 40
0.0
 40
0.0
 40
0.0
 40
0.2895468475
 40
0.5491384346
 40
0.782278826
 40
1.0
 40
1.0
 40
1.0
 40
1.0
 10
37.5435135382
 20
174.5777284787
 30
0.0
 10
37.5654405823
 20
174.5903879879
 30
0.0
 10
37.6052314022
 20
174.6178251586
 30
0.0
 10
37.6528298987
 20
174.6677951193
 30
0.0
 10
37.6829374363
 20
174.7231165126
 30
0.0
 10
37.6899377679
 20
174.7628104354
 30
0.0
 10
37.6899381149
 20
174.7818488437
 30
0.0
  0
SPLINE
  5
35E
100
AcDbEntity
  8
0
100
AcDbSpline
 62
7
  6
CONTINUOUS
 70
0
 71
3
 72
11
 73
7
 74
0
 42
0.0000001
 43
0.0000001
 44
0.0000000001
 40
0.0
 40
0.0
 40
0.0
 40
0.0
 40
0.2897031353
 40
0.5490914015
 40
0.7822201129
 40
1.0
 40
1.0
 40
1.0
 40
1.0
 10
43.0653258835
 20
178.857934647
 30
0.0
 10
43.1201739558
 20
178.8896010073
 30
0.0
 10
43.2196827544
 20
178.9581394559
 30
0.0
 10
43.3386118951
 20
179.0831245129
 30
0.0
 10
43.4138410088
 20
179.2213919352
 30
0.0
 10
43.4314308617
 20
179.3206259786
 30
0.0
 10
43.4314344657
 20
179.3682355925
 30
0.0
  0
SPLINE
  5
35F
100
AcDbEntity
  8
0
100
AcDbSpline
 62
7
  6
CONTINUOUS
 70
0
 71
3
 72
11
 73
7
 74
0
 42
0.0000001
 43
0.0000001
 44
0.0000000001
 40
0.0
 40
0.0
 40
0.0
 40
0.0
 40
0.2826299124
 40
0.539370972
 40
0.7754803459
 40
1.0
 40
1.0
 40
1.0
 40
1.0
 10
38.7567120072
 20
172.4247689879
 30
0.0
 10
38.7974510831
 20
172.4547867617
 30
0.0
 10
38.8710430492
 20
172.5182214369
 30
0.0
 10
38.9570928848
 20
172.6285529426
 30
0.0
 10
39.0105798048
 20
172.7468286897
 30
0.0
 10
39.0228846169
 20
172.8297271227
 30
0.0
 10
39.02288766
 20
172.8699264607
 30
0.0
  0
SPLINE
  5
360
100
AcDbEntity
  8
0
100
AcDbSpline
 62
7
  6
CONTINUOUS
 70
0
 71
3
 72
14
 73
10
 74
0
 42
0.0000001
 43
0.0000001
 44
0.0000000001
 40
0.0
 40
0.0
 40
0.0
 40
0.0
 40
0.1080475079
 40
0.218129458
 40
0.3321012995
 40
0.4515009845
 40
0.5774519083
 40
0.7107147531
 40
1.0
 40
1.0
 40
1.0
 40
1.0
 10
33.6032669346
 20
177.1507198662
 30
0.0
 10
33.6032783327
 20
177.3258341244
 30
0.0
 10
33.6336623154
 20
177.6800727731
 30
0.0
 10
33.7694208884
 20
178.2032827978
 30
0.0
 10
33.9934374573
 20
178.715251875
 30
0.0
 10
34.302994748
 20
179.2106973323
 30
0.0
 10
34.6945031675
 20
179.6853141351
 30
0.0
 10
35.3378228364
 20
180.3010227062
 30
0.0
 10
35.9064496549
 20
180.6925234737
 30
0.0
 10
36.3124854494
 20
180.9269469496
 30
0.0
  0
SPLINE
  5
361
100
AcDbEntity
  8
0
100
AcDbSpline
 62
7
  6
CONTINUOUS
 70
0
 71
3
 72
11
 73
7
 74
0
 42
0.0000001
 43
0.0000001
 44
0.0000000001
 40
0.0
 40
0.0
 40
0.0
 40
0.0
 40
0.2889223968
 40
0.5484186271
 40
0.7822338033
 40
1.0
 40
1.0
 40
1.0
 40
1.0
 10
55.964800473
 20
164.6817002242
 30
0.0
 10
56.0773309831
 20
164.7466693567
 30
0.0
 10
56.2820501931
 20
164.8869366739
 30
0.0
 10
56.5290682138
 20
165.1414546259
 30
0.0
 10
56.6900141356
 20
165.4223659618
 30
0.0
 10
56.7337725341
 20
165.6249740889
 30
0.0
 10
56.737951636
 20
165.7228222158
 30
0.0
  0
SPLINE
  5
362
100
AcDbEntity
  8
0
100
AcDbSpline
 62
7
  6
CONTINUOUS
 70
0
 71
3
 72
11
 73
7
 74
0
 42
0.0000001
 43
0.0000001
 44
0.0000000001
 40
0.0
 40
0.0
 40
0.0
 40
0.0
 40
0.2895417814
 40
0.5491287434
 40
0.7822661886
 40
1.0
 40
1.0
 40
1.0
 40
1.0
 10
38.1264467838
 20
177.5648205838
 30
0.0
 10
38.1483734264
 20
177.5774798612
 30
0.0
 10
38.1881632852
 20
177.6049168574
 30
0.0
 10
38.2357616835
 20
177.6548849221
 30
0.0
 10
38.2658713894
 20
177.7102060318
 30
0.0
 10
38.2728693737
 20
177.7499013836
 30
0.0
 10
38.2728693137
 20
177.7689408814
 30
0.0
  0
SPLINE
  5
363
100
AcDbEntity
  8
0
100
AcDbSpline
 62
7
  6
CONTINUOUS
 70
0
 71
3
 72
9
 73
5
 74
0
 42
0.0000001
 43
0.0000001
 44
0.0000000001
 40
0.0
 40
0.0
 40
0.0
 40
0.0
 40
0.2470213551
 40
1.0
 40
1.0
 40
1.0
 40
1.0
 10
45.8633171955
 20
174.4436827064
 30
0.0
 10
45.7209364712
 20
174.4719689447
 30
0.0
 10
45.1428361492
 20
174.5777375147
 30
0.0
 10
44.5585064637
 20
174.6491091752
 30
0.0
 10
44.11741164
 20
174.684239241
 30
0.0
  0
SPLINE
  5
364
100
AcDbEntity
  8
0
100
AcDbSpline
 62
7
  6
CONTINUOUS
 70
0
 71
3
 72
9
 73
5
 74
0
 42
0.0000001
 43
0.0000001
 44
0.0000000001
 40
0.0
 40
0.0
 40
0.0
 40
0.0
 40
0.5095921527
 40
1.0
 40
1.0
 40
1.0
 40
1.0
 10
40.912606949
 20
174.6154970555
 30
0.0
 10
40.4472053224
 20
174.5578436353
 30
0.0
 10
39.5385478458
 20
174.402841043
 30
0.0
 10
38.6491096674
 20
174.1594578256
 30
0.0
 10
38.2210529297
 20
174.0164783795
 30
0.0
  0
SPLINE
  5
365
100
AcDbEntity
  8
0
100
AcDbSpline
 62
7
  6
CONTINUOUS
 70
0
 71
3
 72
16
 73
12
 74
0
 42
0.0000001
 43
0.0000001
 44
0.0000000001
 40
0.0
 40
0.0
 40
0.0
 40
0.0
 40
0.042873447
 40
0.0875192042
 40
0.1869164445
 40
0.3042255987
 40
0.4379469174
 40
0.5823603555
 40
0.7295891375
 40
0.8712694029
 40
1.0
 40
1.0
 40
1.0
 40
1.0
 10
37.2729119812
 20
177.7689409687
 30
0.0
 10
37.2729114199
 20
177.7547090515
 30
0.0
 10
37.2766911204
 20
177.7255290249
 30
0.0
 10
37.2998246879
 20
177.6673692582
 30
0.0
 10
37.3583028549
 20
177.6001859116
 30
0.0
 10
37.458724652
 20
177.5392403709
 30
0.0
 10
37.5840558383
 20
177.4972788027
 30
0.0
 10
37.7245726935
 20
177.4775700987
 30
0.0
 10
37.8690523797
 20
177.4815400177
 30
0.0
 10
38.0056327091
 20
177.5088835038
 30
0.0
 10
38.0894394269
 20
177.5434545039
 30
0.0
 10
38.1264467838
 20
177.5648205838
 30
0.0
  0
SPLINE
  5
366
100
AcDbEntity
  8
0
100
AcDbSpline
 62
7
  6
CONTINUOUS
 70
0
 71
3
 72
16
 73
12
 74
0
 42
0.0000001
 43
0.0000001
 44
0.0000000001
 40
0.0
 40
0.0
 40
0.0
 40
0.0
 40
0.0434179124
 40
0.0880206985
 40
0.184316514
 40
0.29441916
 40
0.4192827627
 40
0.556804507
 40
0.7029319534
 40
0.8525117199
 40
1.0
 40
1.0
 40
1.0
 40
1.0
 10
59.1039492989
 20
148.6548192661
 30
0.0
 10
59.1039489068
 20
148.6033247697
 30
0.0
 10
59.0930516717
 20
148.4986243228
 30
0.0
 10
59.0268698171
 20
148.2889423421
 30
0.0
 10
58.8573482834
 20
148.0367503593
 30
0.0
 10
58.5515686474
 20
147.7841710605
 30
0.0
 10
58.156260156
 20
147.5808731028
 30
0.0
 10
57.6916940644
 20
147.4363630508
 30
0.0
 10
57.1821850747
 20
147.3576452285
 30
0.0
 10
56.6551151364
 20
147.3488927394
 30
0.0
 10
56.3039102446
 20
147.3908888084
 30
0.0
 10
56.1322350728
 20
147.4244453209
 30
0.0
  0
SPLINE
  5
367
100
AcDbEntity
  8
0
100
AcDbSpline
 62
7
  6
CONTINUOUS
 70
0
 71
3
 72
11
 73
7
 74
0
 42
0.0000001
 43
0.0000001
 44
0.0000000001
 40
0.0
 40
0.0
 40
0.0
 40
0.0
 40
0.2897733512
 40
0.5490657165
 40
0.7822241652
 40
1.0
 40
1.0
 40
1.0
 40
1.0
 10
58.4449615559
 20
149.6142331278
 30
0.0
 10
58.5437128249
 20
149.6712468592
 30
0.0
 10
58.7228507864
 20
149.7945774361
 30
0.0
 10
58.9368761213
 20
150.0195978665
 30
0.0
 10
59.0723055567
 20
150.2684391288
 30
0.0
 10
59.1039541641
 20
150.4470784114
 30
0.0
 10
59.103954163
 20
150.5327748255
 30
0.0
  0
SPLINE
  5
368
100
AcDbEntity
  8
0
100
AcDbSpline
 62
7
  6
CONTINUOUS
 70
0
 71
3
 72
15
 73
11
 74
0
 42
0.0000001
 43
0.0000001
 44
0.0000000001
 40
0.0
 40
0.0
 40
0.0
 40
0.0
 40
0.1059966096
 40
0.2143507184
 40
0.3271711998
 40
0.4461426278
 40
0.5724441526
 40
0.7067597505
 40
0.8493281983
 40
1.0
 40
1.0
 40
1.0
 40
1.0
 10
53.8532453062
 20
173.8847103015
 30
0.0
 10
53.8532460391
 20
173.657948775
 30
0.0
 10
53.8101900221
 20
173.1982997208
 30
0.0
 10
53.6184870582
 20
172.5215155656
 30
0.0
 10
53.3028000313
 20
171.8622498278
 30
0.0
 10
52.8678520141
 20
171.2283302608
 30
0.0
 10
52.3194541276
 20
170.6263543518
 30
0.0
 10
51.6641850589
 20
170.0625658508
 30
0.0
 10
50.9096064141
 20
169.5429420295
 30
0.0
 10
50.360421321
 20
169.2376387969
 30
0.0
 10
50.0723650366
 20
169.0929862986
 30
0.0
  0
SPLINE
  5
369
100
AcDbEntity
  8
0
100
AcDbSpline
 62
7
  6
CONTINUOUS
 70
0
 71
3
 72
9
 73
5
 74
0
 42
0.0000001
 43
0.0000001
 44
0.0000000001
 40
0.0
 40
0.0
 40
0.0
 40
0.0
 40
0.4860980831
 40
1.0
 40
1.0
 40
1.0
 40
1.0
 10
50.0723650366
 20
169.0929862986
 30
0.0
 10
49.6472290395
 20
168.8794968264
 30
0.0
 10
48.7449905627
 20
168.494178957
 30
0.0
 10
47.8077700615
 20
168.2062720793
 30
0.0
 10
47.3206088322
 20
168.0812814984
 30
0.0
  0
SPLINE
  5
36A
100
AcDbEntity
  8
0
100
AcDbSpline
 62
7
  6
CONTINUOUS
 70
0
 71
3
 72
11
 73
7
 74
0
 42
0.0000001
 43
0.0000001
 44
0.0000000001
 40
0.0
 40
0.0
 40
0.0
 40
0.0
 40
0.2440451995
 40
0.4949336385
 40
0.748391108
 40
1.0
 40
1.0
 40
1.0
 40
1.0
 10
47.3206088322
 20
168.0812814984
 30
0.0
 10
46.7673742124
 20
167.9393385186
 30
0.0
 10
45.6293857738
 20
167.7111054925
 30
0.0
 10
43.884317409
 20
167.5343071218
 30
0.0
 10
42.112710664
 20
167.5207943138
 30
0.0
 10
40.9329107856
 20
167.6219158131
 30
0.0
 10
40.3493464261
 20
167.7006761505
 30
0.0
  0
SPLINE
  5
36B
100
AcDbEntity
  8
0
100
AcDbSpline
 62
7
  6
CONTINUOUS
 70
0
 71
3
 72
11
 73
7
 74
0
 42
0.0000001
 43
0.0000001
 44
0.0000000001
 40
0.0
 40
0.0
 40
0.0
 40
0.0
 40
0.2652493344
 40
0.5216204479
 40
0.7671257651
 40
1.0
 40
1.0
 40
1.0
 40
1.0
 10
39.6072912584
 20
167.8167472627
 30
0.0
 10
39.1876599367
 20
167.8915667378
 30
0.0
 10
38.3674605892
 20
168.0690268976
 30
0.0
 10
37.1854477256
 20
168.4237436692
 30
0.0
 10
36.0860319219
 20
168.85829006
 30
0.0
 10
35.3991968512
 20
169.2069161708
 30
0.0
 10
35.0751081976
 20
169.3940246092
 30
0.0
  0
SPLINE
  5
36C
100
AcDbEntity
  8
0
100
AcDbSpline
 62
7
  6
CONTINUOUS
 70
0
 71
3
 72
11
 73
7
 74
0
 42
0.0000001
 43
0.0000001
 44
0.0000000001
 40
0.0
 40
0.0
 40
0.0
 40
0.0
 40
0.2889223968
 40
0.5484186271
 40
0.7822338033
 40
1.0
 40
1.0
 40
1.0
 40
1.0
 10
55.9648305015
 20
160.5176271914
 30
0.0
 10
56.0773610115
 20
160.5825963239
 30
0.0
 10
56.2820802215
 20
160.7228636411
 30
0.0
 10
56.5290982423
 20
160.9773815931
 30
0.0
 10
56.690044164
 20
161.258292929
 30
0.0
 10
56.7338025626
 20
161.4609010561
 30
0.0
 10
56.7379816645
 20
161.558749183
 30
0.0
  0
SPLINE
  5
36D
100
AcDbEntity
  8
0
100
AcDbSpline
 62
7
  6
CONTINUOUS
 70
0
 71
3
 72
11
 73
7
 74
0
 42
0.0000001
 43
0.0000001
 44
0.0000000001
 40
0.0
 40
0.0
 40
0.0
 40
0.0
 40
0.2177661967
 40
0.4515813729
 40
0.7110776032
 40
1.0
 40
1.0
 40
1.0
 40
1.0
 10
56.0956397998
 20
146.5442646264
 30
0.0
 10
56.0924768592
 20
146.470208569
 30
0.0
 10
56.0593584483
 20
146.3168652239
 30
0.0
 10
55.9375470167
 20
146.1042583333
 30
0.0
 10
55.7505921785
 20
145.911627195
 30
0.0
 10
55.5956510667
 20
145.8054663023
 30
0.0
 10
55.5104826923
 20
145.7562946119
 30
0.0
  0
SPLINE
  5
36E
100
AcDbEntity
  8
0
100
AcDbSpline
 62
7
  6
CONTINUOUS
 70
0
 71
3
 72
17
 73
13
 74
0
 42
0.0000001
 43
0.0000001
 44
0.0000000001
 40
0.0
 40
0.0
 40
0.0
 40
0.0
 40
0.0428584629
 40
0.08748393
 40
0.135317815
 40
0.1872795469
 40
0.3045398917
 40
0.4382057949
 40
0.5825481992
 40
0.7297130515
 40
0.8713063844
 40
1.0
 40
1.0
 40
1.0
 40
1.0
 10
41.6032546683
 20
175.9259663422
 30
0.0
 10
41.6032519747
 20
175.8903831663
 30
0.0
 10
41.6127900979
 20
175.8174435809
 30
0.0
 10
41.6546000854
 20
175.7121134018
 30
0.0
 10
41.7224936402
 20
175.6122655451
 30
0.0
 10
41.8502785429
 20
175.4840104638
 30
0.0
 10
42.0680308473
 20
175.3514633182
 30
0.0
 10
42.3811181574
 20
175.2468804127
 30
0.0
 10
42.7324820607
 20
175.197496461
 30
0.0
 10
43.0936335874
 20
175.2074938974
 30
0.0
 10
43.4350966894
 20
175.2757959169
 30
0.0
 10
43.6446046151
 20
175.3622417978
 30
0.0
 10
43.7371375634
 20
175.4156654015
 30
0.0
  0
SPLINE
  5
36F
100
AcDbEntity
  8
0
100
AcDbSpline
 62
7
  6
CONTINUOUS
 70
0
 71
3
 72
15
 73
11
 74
0
 42
0.0000001
 43
0.0000001
 44
0.0000000001
 40
0.0
 40
0.0
 40
0.0
 40
0.0
 40
0.1141469224
 40
0.2373360366
 40
0.366976904
 40
0.5000005214
 40
0.6330240662
 40
0.7626647219
 40
0.8858535023
 40
1.0
 40
1.0
 40
1.0
 40
1.0
 10
44.5909900997
 20
156.1085813467
 30
0.0
 10
44.7188993313
 20
156.034734588
 30
0.0
 10
44.9986321832
 20
155.9044942276
 30
0.0
 10
45.4541255033
 20
155.7660249471
 30
0.0
 10
45.947291884
 20
155.6808441388
 30
0.0
 10
46.4595527308
 20
155.6520708229
 30
0.0
 10
46.9718131681
 20
155.6808465701
 30
0.0
 10
47.464978339
 20
155.7660297201
 30
0.0
 10
47.9204696981
 20
155.9045011657
 30
0.0
 10
48.2002008363
 20
156.0347429233
 30
0.0
 10
48.3281090595
 20
156.1085903296
 30
0.0
  0
SPLINE
  5
370
100
AcDbEntity
  8
0
100
AcDbSpline
 62
7
  6
CONTINUOUS
 70
0
 71
3
 72
11
 73
7
 74
0
 42
0.0000001
 43
0.0000001
 44
0.0000000001
 40
0.0
 40
0.0
 40
0.0
 40
0.0
 40
0.217765741
 40
0.4515807317
 40
0.7110771318
 40
1.0
 40
1.0
 40
1.0
 40
1.0
 10
28.9685191504
 20
165.7227681661
 30
0.0
 10
28.972698301
 20
165.6249189482
 30
0.0
 10
29.0164576278
 20
165.4223084247
 30
0.0
 10
29.1774069887
 20
165.1413942939
 30
0.0
 10
29.4244300613
 20
164.8868743775
 30
0.0
 10
29.6291532191
 20
164.746606479
 30
0.0
 10
29.7416858716
 20
164.6816371916
 30
0.0
  0
SPLINE
  5
371
100
AcDbEntity
  8
0
100
AcDbSpline
 62
7
  6
CONTINUOUS
 70
0
 71
3
 72
14
 73
10
 74
0
 42
0.0000001
 43
0.0000001
 44
0.0000000001
 40
0.0
 40
0.0
 40
0.0
 40
0.0
 40
0.1080477053
 40
0.2181300025
 40
0.3321016202
 40
0.4515004859
 40
0.5774546212
 40
0.7107147396
 40
1.0
 40
1.0
 40
1.0
 40
1.0
 10
31.8532552285
 20
177.1507199707
 30
0.0
 10
31.8532554119
 20
176.942472862
 30
0.0
 10
31.8894507008
 20
176.5212145008
 30
0.0
 10
32.050840755
 20
175.8989996466
 30
0.0
 10
32.317274313
 20
175.2901751022
 30
0.0
 10
32.6853950443
 20
174.700982685
 30
0.0
 10
33.1509887203
 20
174.1365733802
 30
0.0
 10
33.916034732
 20
173.4043770904
 30
0.0
 10
34.5922464227
 20
172.9388083467
 30
0.0
 10
35.0751081976
 20
172.6600342777
 30
0.0
  0
SPLINE
  5
372
100
AcDbEntity
  8
0
100
AcDbSpline
 62
7
  6
CONTINUOUS
 70
0
 71
3
 72
11
 73
7
 74
0
 42
0.0000001
 43
0.0000001
 44
0.0000000001
 40
0.0
 40
0.0
 40
0.0
 40
0.0
 40
0.217765741
 40
0.4515807317
 40
0.7110771318
 40
1.0
 40
1.0
 40
1.0
 40
1.0
 10
28.9685491788
 20
161.5586951333
 30
0.0
 10
28.9727283294
 20
161.4608459154
 30
0.0
 10
29.0164876563
 20
161.2582353919
 30
0.0
 10
29.1774370172
 20
160.9773212611
 30
0.0
 10
29.4244600898
 20
160.7228013447
 30
0.0
 10
29.6291832476
 20
160.5825334462
 30
0.0
 10
29.7417159
 20
160.5175641588
 30
0.0
  0
SPLINE
  5
373
100
AcDbEntity
  8
0
100
AcDbSpline
 62
7
  6
CONTINUOUS
 70
0
 71
3
 72
25
 73
21
 74
0
 42
0.0000001
 43
0.0000001
 44
0.0000000001
 40
0.0
 40
0.0
 40
0.0
 40
0.0
 40
0.0213321235
 40
0.0428925516
 40
0.0648979966
 40
0.0875427275
 40
0.1353178784
 40
0.1872181436
 40
0.243654941
 40
0.3046024277
 40
0.3696902037
 40
0.4382875975
 40
0.5095740912
 40
0.5825983821
 40
0.6563300263
 40
0.7297072645
 40
0.8016839344
 40
0.8712769588
 40
0.9376164491
 40
1.0
 40
1.0
 40
1.0
 40
1.0
 10
54.353237728
 20
165.3114349433
 30
0.0
 10
54.3532299619
 20
165.1482929021
 30
0.0
 10
54.3321808663
 20
164.8198847124
 30
0.0
 10
54.2378315051
 20
164.331366428
 30
0.0
 10
54.0812960504
 20
163.8484932469
 30
0.0
 10
53.7860432708
 20
163.2047582382
 30
0.0
 10
53.2561905115
 20
162.4250909285
 30
0.0
 10
52.4097890249
 20
161.5753005297
 30
0.0
 10
51.3608543274
 20
160.8087770162
 30
0.0
 10
50.1318627295
 20
160.1403571003
 30
0.0
 10
48.7485045431
 20
159.5830440815
 30
0.0
 10
47.2398600527
 20
159.1482545185
 30
0.0
 10
45.6378211382
 20
158.8450451145
 30
0.0
 10
43.9764225393
 20
158.679824354
 30
0.0
 10
42.2910653142
 20
158.656104826
 30
0.0
 10
40.617694508
 20
158.7743939121
 30
0.0
 10
38.9920109933
 20
159.0321650888
 30
0.0
 10
37.4484983289
 20
159.4239998462
 30
0.0
 10
36.0201705465
 20
159.9415216899
 30
0.0
 10
35.1347321787
 20
160.3780853321
 30
0.0
 10
34.721556279
 20
160.6166271524
 30
0.0
  0
SPLINE
  5
374
100
AcDbEntity
  8
0
100
AcDbSpline
 62
7
  6
CONTINUOUS
 70
0
 71
3
 72
11
 73
7
 74
0
 42
0.0000001
 43
0.0000001
 44
0.0000000001
 40
0.0
 40
0.0
 40
0.0
 40
0.0
 40
0.2177661967
 40
0.4515813729
 40
0.7110776032
 40
1.0
 40
1.0
 40
1.0
 40
1.0
 10
54.9970858418
 20
163.7049431908
 30
0.0
 10
55.0000233562
 20
163.7737211931
 30
0.0
 10
55.0307813822
 20
163.9161355925
 30
0.0
 10
55.1439111816
 20
164.1135897605
 30
0.0
 10
55.3175415467
 20
164.2924918697
 30
0.0
 10
55.4614398382
 20
164.3910865609
 30
0.0
 10
55.5405381707
 20
164.4367537319
 30
0.0
  0
SPLINE
  5
375
100
AcDbEntity
  8
0
100
AcDbSpline
 62
7
  6
CONTINUOUS
 70
0
 71
3
 72
15
 73
11
 74
0
 42
0.0000001
 43
0.0000001
 44
0.0000000001
 40
0.0
 40
0.0
 40
0.0
 40
0.0
 40
0.1141464977
 40
0.2373352781
 40
0.3669759338
 40
0.4999994786
 40
0.633023096
 40
0.7626639634
 40
0.8858530776
 40
1.0
 40
1.0
 40
1.0
 40
1.0
 10
41.5398821938
 20
156.3535194853
 30
0.0
 10
41.629789608
 20
156.4054272452
 30
0.0
 10
41.8264142084
 20
156.4969749138
 30
0.0
 10
42.146581663
 20
156.5943072768
 30
0.0
 10
42.4932302532
 20
156.654182995
 30
0.0
 10
42.8533010142
 20
156.6744096307
 30
0.0
 10
43.213372063
 20
156.654184704
 30
0.0
 10
43.5600215036
 20
156.5943106317
 30
0.0
 10
43.8801903366
 20
156.4969797907
 30
0.0
 10
44.0768161416
 20
156.4054331041
 30
0.0
 10
44.1667242646
 20
156.3535257994
 30
0.0
  0
SPLINE
  5
376
100
AcDbEntity
  8
0
100
AcDbSpline
 62
7
  6
CONTINUOUS
 70
0
 71
3
 72
11
 73
7
 74
0
 42
0.0000001
 43
0.0000001
 44
0.0000000001
 40
0.0
 40
0.0
 40
0.0
 40
0.0
 40
0.2889228682
 40
0.5484192683
 40
0.782234259
 40
1.0
 40
1.0
 40
1.0
 40
1.0
 10
30.196059926
 20
145.7562337635
 30
0.0
 10
30.1108899301
 20
145.8054055712
 30
0.0
 10
29.9559458304
 20
145.9115669038
 30
0.0
 10
29.7689871688
 20
146.1041995288
 30
0.0
 10
29.6471731342
 20
146.3168085348
 30
0.0
 10
29.6140540207
 20
146.4701536936
 30
0.0
 10
29.6108910433
 20
146.5442105767
 30
0.0
  0
SPLINE
  5
377
100
AcDbEntity
  8
0
100
AcDbSpline
 62
7
  6
CONTINUOUS
 70
0
 71
3
 72
11
 73
7
 74
0
 42
0.0000001
 43
0.0000001
 44
0.0000000001
 40
0.0
 40
0.0
 40
0.0
 40
0.0
 40
0.2177753738
 40
0.4509336309
 40
0.7102261693
 40
1.0
 40
1.0
 40
1.0
 40
1.0
 10
40.6033192088
 20
142.4495405788
 30
0.0
 10
40.6033192099
 20
142.3638432422
 30
0.0
 10
40.63496854
 20
142.1852018985
 30
0.0
 10
40.7704009051
 20
141.9363582267
 30
0.0
 10
40.9844305869
 20
141.7113361284
 30
0.0
 10
41.1635719481
 20
141.5880050807
 30
0.0
 10
41.2623250638
 20
141.5309912326
 30
0.0
  0
SPLINE
  5
378
100
AcDbEntity
  8
0
100
AcDbSpline
 62
7
  6
CONTINUOUS
 70
0
 71
3
 72
14
 73
10
 74
0
 42
0.0000001
 43
0.0000001
 44
0.0000000001
 40
0.0
 40
0.0
 40
0.0
 40
0.0
 40
0.1080463613
 40
0.2181291605
 40
0.3321024386
 40
0.4515010471
 40
0.577458788
 40
0.7107176033
 40
1.0
 40
1.0
 40
1.0
 40
1.0
 10
31.3532628482
 20
173.8847102929
 30
0.0
 10
31.3532528483
 20
173.6670000814
 30
0.0
 10
31.3910940733
 20
173.2265948144
 30
0.0
 10
31.5598086704
 20
172.5760917884
 30
0.0
 10
31.8383793044
 20
171.9396011496
 30
0.0
 10
32.2232131037
 20
171.3236037422
 30
0.0
 10
32.7099909009
 20
170.7335491085
 30
0.0
 10
33.5098081554
 20
169.9680710444
 30
0.0
 10
34.2167511613
 20
169.4813453096
 30
0.0
 10
34.721556279
 20
169.1899025323
 30
0.0
  0
SPLINE
  5
379
100
AcDbEntity
  8
0
100
AcDbSpline
 62
7
  6
CONTINUOUS
 70
0
 71
3
 72
17
 73
13
 74
0
 42
0.0000001
 43
0.0000001
 44
0.0000000001
 40
0.0
 40
0.0
 40
0.0
 40
0.0
 40
0.0428572827
 40
0.0874860934
 40
0.1353200924
 40
0.1872833297
 40
0.3045486557
 40
0.4382179215
 40
0.582562828
 40
0.7297192441
 40
0.8713072941
 40
1.0
 40
1.0
 40
1.0
 40
1.0
 10
45.103293322
 20
140.5715850195
 30
0.0
 10
45.1032928343
 20
140.5075370216
 30
0.0
 10
45.0861779363
 20
140.3762352753
 30
0.0
 10
45.0108736783
 20
140.1866492601
 30
0.0
 10
44.8886776342
 20
140.0069115192
 30
0.0
 10
44.6586563333
 20
139.7760418035
 30
0.0
 10
44.2666829377
 20
139.5374620888
 30
0.0
 10
43.7031124484
 20
139.3492008162
 30
0.0
 10
43.0706574887
 20
139.260325079
 30
0.0
 10
42.4206018477
 20
139.2783332092
 30
0.0
 10
41.8059923862
 20
139.401282765
 30
0.0
 10
41.4288840032
 20
139.5568750002
 30
0.0
 10
41.2623250638
 20
139.6530356732
 30
0.0
  0
SPLINE
  5
37A
100
AcDbEntity
  8
0
100
AcDbSpline
 62
7
  6
CONTINUOUS
 70
0
 71
3
 72
15
 73
11
 74
0
 42
0.0000001
 43
0.0000001
 44
0.0000000001
 40
0.0
 40
0.0
 40
0.0
 40
0.0
 40
0.1141469224
 40
0.2373360366
 40
0.366976904
 40
0.5000005214
 40
0.6330240662
 40
0.7626647219
 40
0.8858535023
 40
1.0
 40
1.0
 40
1.0
 40
1.0
 10
37.3785009316
 20
156.10856401
 30
0.0
 10
37.5064101633
 20
156.0347172513
 30
0.0
 10
37.7861430152
 20
155.9044768909
 30
0.0
 10
38.2416363352
 20
155.7660076105
 30
0.0
 10
38.734802716
 20
155.6808268021
 30
0.0
 10
39.2470635628
 20
155.6520534862
 30
0.0
 10
39.759324
 20
155.6808292334
 30
0.0
 10
40.252489171
 20
155.7660123834
 30
0.0
 10
40.7079805301
 20
155.9044838291
 30
0.0
 10
40.9877116683
 20
156.0347255866
 30
0.0
 10
41.1156198915
 20
156.1085729929
 30
0.0
  0
SPLINE
  5
37B
100
AcDbEntity
  8
0
100
AcDbSpline
 62
7
  6
CONTINUOUS
 70
0
 71
3
 72
17
 73
13
 74
0
 42
0.0000001
 43
0.0000001
 44
0.0000000001
 40
0.0
 40
0.0
 40
0.0
 40
0.0
 40
0.0428584629
 40
0.08748393
 40
0.135317815
 40
0.1872795469
 40
0.3045398917
 40
0.4382057949
 40
0.5825481992
 40
0.7297130515
 40
0.8713063844
 40
1.0
 40
1.0
 40
1.0
 40
1.0
 10
45.8458776916
 20
178.3754312655
 30
0.0
 10
45.845874998
 20
178.3398480896
 30
0.0
 10
45.8554131211
 20
178.2669085042
 30
0.0
 10
45.8972231086
 20
178.1615783251
 30
0.0
 10
45.9651166635
 20
178.0617304683
 30
0.0
 10
46.0929015662
 20
177.9334753871
 30
0.0
 10
46.3106538706
 20
177.8009282414
 30
0.0
 10
46.6237411807
 20
177.696345336
 30
0.0
 10
46.975105084
 20
177.6469613843
 30
0.0
 10
47.3362566106
 20
177.6569588206
 30
0.0
 10
47.6777197127
 20
177.7252608402
 30
0.0
 10
47.8872276384
 20
177.811706721
 30
0.0
 10
47.9797605867
 20
177.8651303247
 30
0.0
  0
SPLINE
  5
37C
100
AcDbEntity
  8
0
100
AcDbSpline
 62
7
  6
CONTINUOUS
 70
0
 71
3
 72
25
 73
21
 74
0
 42
0.0000001
 43
0.0000001
 44
0.0000000001
 40
0.0
 40
0.0
 40
0.0
 40
0.0
 40
0.0213318462
 40
0.0428920161
 40
0.064897172
 40
0.0875415821
 40
0.1353161906
 40
0.1872167075
 40
0.2436541122
 40
0.3046018657
 40
0.3696895865
 40
0.4382869159
 40
0.5095734822
 40
0.5825978848
 40
0.6563296228
 40
0.7297069531
 40
0.8016837162
 40
0.871276805
 40
0.9376163962
 40
1.0
 40
1.0
 40
1.0
 40
1.0
 10
54.6032375906
 20
163.6784301041
 30
0.0
 10
54.6032298793
 20
163.5117436655
 30
0.0
 10
54.5817250075
 20
163.1762001907
 30
0.0
 10
54.4853246101
 20
162.6770686008
 30
0.0
 10
54.3253929001
 20
162.1837032224
 30
0.0
 10
54.023725853
 20
161.5259818159
 30
0.0
 10
53.4823627465
 20
160.7293659678
 30
0.0
 10
52.6175635422
 20
159.8610956288
 30
0.0
 10
51.5458211912
 20
159.0778999382
 30
0.0
 10
50.29010764
 20
158.3949443159
 30
0.0
 10
48.8766759398
 20
157.8255140317
 30
0.0
 10
47.3352355893
 20
157.381271258
 30
0.0
 10
45.6983690917
 20
157.0714687846
 30
0.0
 10
44.0008510874
 20
156.9026548879
 30
0.0
 10
42.2788533596
 20
156.8784187958
 30
0.0
 10
40.5691026982
 20
156.9992787101
 30
0.0
 10
38.908076249
 20
157.2626534417
 30
0.0
 10
37.331006854
 20
157.6630062248
 30
0.0
 10
35.8716268309
 20
158.1917790204
 30
0.0
 10
34.9669386586
 20
158.637833563
 30
0.0
 10
34.5447803197
 20
158.8815612797
 30
0.0
  0
SPLINE
  5
37D
100
AcDbEntity
  8
0
100
AcDbSpline
 62
7
  6
CONTINUOUS
 70
0
 71
3
 72
11
 73
7
 74
0
 42
0.0000001
 43
0.0000001
 44
0.0000000001
 40
0.0
 40
0.0
 40
0.0
 40
0.0
 40
0.2897766779
 40
0.5490706103
 40
0.7822286453
 40
1.0
 40
1.0
 40
1.0
 40
1.0
 10
27.2615525059
 20
147.7362026127
 30
0.0
 10
27.1627985855
 20
147.7932169254
 30
0.0
 10
26.9836564322
 20
147.9165492949
 30
0.0
 10
26.7696271774
 20
148.141573205
 30
0.0
 10
26.6341969451
 20
148.3904165414
 30
0.0
 10
26.6025508625
 20
148.5690563477
 30
0.0
 10
26.6025515151
 20
148.6547519589
 30
0.0
  0
SPLINE
  5
37E
100
AcDbEntity
  8
0
100
AcDbSpline
 62
7
  6
CONTINUOUS
 70
0
 71
3
 72
11
 73
7
 74
0
 42
0.0000001
 43
0.0000001
 44
0.0000000001
 40
0.0
 40
0.0
 40
0.0
 40
0.0
 40
0.2177753738
 40
0.4509336309
 40
0.7102261693
 40
1.0
 40
1.0
 40
1.0
 40
1.0
 10
26.6025466509
 20
150.5327075183
 30
0.0
 10
26.602546652
 20
150.4470101817
 30
0.0
 10
26.634195982
 20
150.268368838
 30
0.0
 10
26.7696283472
 20
150.0195251662
 30
0.0
 10
26.983658029
 20
149.7945030679
 30
0.0
 10
27.1627993902
 20
149.6711720202
 30
0.0
 10
27.2615525059
 20
149.6141581721
 30
0.0
  0
SPLINE
  5
37F
100
AcDbEntity
  8
0
100
AcDbSpline
 62
7
  6
CONTINUOUS
 70
0
 71
3
 72
15
 73
11
 74
0
 42
0.0000001
 43
0.0000001
 44
0.0000000001
 40
0.0
 40
0.0
 40
0.0
 40
0.0
 40
0.1136984903
 40
0.2362576044
 40
0.3652251127
 40
0.4977145688
 40
0.6305169545
 40
0.7604081701
 40
0.8843999983
 40
1.0
 40
1.0
 40
1.0
 40
1.0
 10
47.8737612503
 20
141.3472577501
 30
0.0
 10
47.7793282437
 20
141.2927371538
 30
0.0
 10
47.5731777536
 20
141.1962290296
 30
0.0
 10
47.2377102404
 20
141.0924658442
 30
0.0
 10
46.8744055095
 20
141.0270563539
 30
0.0
 10
46.4963395286
 20
141.0022733168
 30
0.0
 10
46.1169500652
 20
141.0190504664
 30
0.0
 10
45.7497717308
 20
141.0767567227
 30
0.0
 10
45.4079448894
 20
141.1733329991
 30
0.0
 10
45.1962822416
 20
141.2652684349
 30
0.0
 10
45.0985666819
 20
141.317640055
 30
0.0
  0
SPLINE
  5
380
100
AcDbEntity
  8
0
100
AcDbSpline
 62
7
  6
CONTINUOUS
 70
0
 71
3
 72
14
 73
10
 74
0
 42
0.0000001
 43
0.0000001
 44
0.0000000001
 40
0.0
 40
0.0
 40
0.0
 40
0.0
 40
0.1080463821
 40
0.2181291861
 40
0.3321024731
 40
0.4515010961
 40
0.5774587717
 40
0.7107176015
 40
1.0
 40
1.0
 40
1.0
 40
1.0
 10
31.1032631465
 20
165.3114349134
 30
0.0
 10
31.1032528522
 20
165.0889918331
 30
0.0
 10
31.1419172977
 20
164.6390125327
 30
0.0
 10
31.3142993246
 20
163.9743680689
 30
0.0
 10
31.5989256612
 20
163.3240405022
 30
0.0
 10
31.9921257292
 20
162.694652175
 30
0.0
 10
32.4894852882
 20
162.0917701059
 30
0.0
 10
33.3066898862
 20
161.3096513735
 30
0.0
 10
34.0290011852
 20
160.8123445995
 30
0.0
 10
34.5447803197
 20
160.514566114
 30
0.0
  0
SPLINE
  5
381
100
AcDbEntity
  8
0
100
AcDbSpline
 62
7
  6
CONTINUOUS
 70
0
 71
3
 72
11
 73
7
 74
0
 42
0.0000001
 43
0.0000001
 44
0.0000000001
 40
0.0
 40
0.0
 40
0.0
 40
0.0
 40
0.2590104209
 40
0.5206584756
 40
0.7715118421
 40
1.0
 40
1.0
 40
1.0
 40
1.0
 10
29.5902029486
 20
147.4275344237
 30
0.0
 10
29.3876368349
 20
147.3869518803
 30
0.0
 10
28.9726570948
 20
147.3410552246
 30
0.0
 10
28.355480924
 20
147.3709933384
 30
0.0
 10
27.7750413019
 20
147.4955703786
 30
0.0
 10
27.4193832543
 20
147.6450810491
 30
0.0
 10
27.2615525059
 20
147.7362026127
 30
0.0
  0
SPLINE
  5
382
100
AcDbEntity
  8
0
100
AcDbSpline
 62
7
  6
CONTINUOUS
 70
0
 71
3
 72
15
 73
11
 74
0
 42
0.0000001
 43
0.0000001
 44
0.0000000001
 40
0.0
 40
0.0
 40
0.0
 40
0.0
 40
0.1155993151
 40
0.2395906696
 40
0.3694816351
 40
0.5022839937
 40
0.6347736208
 40
0.76374146
 40
0.8863010146
 40
1.0
 40
1.0
 40
1.0
 40
1.0
 10
40.6080500812
 20
141.3176346895
 30
0.0
 10
40.5103353711
 20
141.265261923
 30
0.0
 10
40.2986738727
 20
141.1733242027
 30
0.0
 10
39.9568478049
 20
141.0767447826
 30
0.0
 10
39.5896691235
 20
141.0190355376
 30
0.0
 10
39.2102783268
 20
141.0022556707
 30
0.0
 10
38.8322101852
 20
141.0270363668
 30
0.0
 10
38.4689026666
 20
141.0924439672
 30
0.0
 10
38.133431954
 20
141.1962057577
 30
0.0
 10
37.9272791529
 20
141.29271324
 30
0.0
 10
37.8328449576
 20
141.3472336147
 30
0.0
  0
SPLINE
  5
383
100
AcDbEntity
  8
0
100
AcDbSpline
 62
7
  6
CONTINUOUS
 70
0
 71
3
 72
11
 73
7
 74
0
 42
0.0000001
 43
0.0000001
 44
0.0000000001
 40
0.0
 40
0.0
 40
0.0
 40
0.0
 40
0.2897766779
 40
0.5490706103
 40
0.7822286453
 40
1.0
 40
1.0
 40
1.0
 40
1.0
 10
41.2623250638
 20
139.6530356732
 30
0.0
 10
41.1635711434
 20
139.7100499859
 30
0.0
 10
40.9844289901
 20
139.8333823554
 30
0.0
 10
40.7703997353
 20
140.0584062655
 30
0.0
 10
40.634969503
 20
140.3072496019
 30
0.0
 10
40.6033234204
 20
140.4858894082
 30
0.0
 10
40.603324073
 20
140.5715850194
 30
0.0
  0
SPLINE
  5
384
100
AcDbEntity
  8
0
100
AcDbSpline
 62
7
  6
CONTINUOUS
 70
0
 71
3
 72
9
 73
5
 74
0
 42
0.0000001
 43
0.0000001
 44
0.0000000001
 40
0.0
 40
0.0
 40
0.0
 40
0.0
 40
0.2542741163
 40
1.0
 40
1.0
 40
1.0
 40
1.0
 10
19.3375520431
 20
136.8142571842
 30
0.0
 10
19.3354396692
 20
136.7919249425
 30
0.0
 10
19.3281086499
 20
136.70400943
 30
0.0
 10
19.3247527544
 20
136.6157503489
 30
0.0
 10
19.3247527544
 20
136.5499628225
 30
0.0
  0
SPLINE
  5
385
100
AcDbEntity
  8
0
100
AcDbSpline
 62
7
  6
CONTINUOUS
 70
0
 71
3
 72
9
 73
5
 74
0
 42
0.0000001
 43
0.0000001
 44
0.0000000001
 40
0.0
 40
0.0
 40
0.0
 40
0.0
 40
0.2541008487
 40
1.0
 40
1.0
 40
1.0
 40
1.0
 10
19.3247527544
 20
136.5499628225
 30
0.0
 10
19.3247527544
 20
136.5270046865
 30
0.0
 10
19.3259515185
 20
136.4366604745
 30
0.0
 10
19.3320475217
 20
136.3463631474
 30
0.0
 10
19.3396487068
 20
136.2794008352
 30
0.0
  0
SPLINE
  5
386
100
AcDbEntity
  8
0
100
AcDbSpline
 62
7
  6
CONTINUOUS
 70
0
 71
3
 72
9
 73
5
 74
0
 42
0.0000001
 43
0.0000001
 44
0.0000000001
 40
0.0
 40
0.0
 40
0.0
 40
0.0
 40
0.2392749145
 40
1.0
 40
1.0
 40
1.0
 40
1.0
 10
19.815363282
 20
121.1429141133
 30
0.0
 10
19.7415214456
 20
121.4951538157
 30
0.0
 10
19.4763012998
 20
122.9762790031
 30
0.0
 10
19.3772823088
 20
124.4850765671
 30
0.0
 10
19.3772823088
 20
125.6292927362
 30
0.0
  0
SPLINE
  5
387
100
AcDbEntity
  8
0
100
AcDbSpline
 62
7
  6
CONTINUOUS
 70
0
 71
3
 72
9
 73
5
 74
0
 42
0.0000001
 43
0.0000001
 44
0.0000000001
 40
0.0
 40
0.0
 40
0.0
 40
0.0
 40
0.4775300783
 40
1.0
 40
1.0
 40
1.0
 40
1.0
 10
26.5271954143
 20
109.8065317148
 30
0.0
 10
26.5093543017
 20
109.8181754925
 30
0.0
 10
26.4766032273
 20
109.8501413075
 30
0.0
 10
26.4567605556
 20
109.8909467373
 30
0.0
 10
26.4492322163
 20
109.91300701
 30
0.0
  0
SPLINE
  5
388
100
AcDbEntity
  8
0
100
AcDbSpline
 62
7
  6
CONTINUOUS
 70
0
 71
3
 72
9
 73
5
 74
0
 42
0.0000001
 43
0.0000001
 44
0.0000000001
 40
0.0
 40
0.0
 40
0.0
 40
0.0
 40
0.2409871976
 40
1.0
 40
1.0
 40
1.0
 40
1.0
 10
26.4492322163
 20
109.91300701
 30
0.0
 10
26.4476380605
 20
109.9176783607
 30
0.0
 10
26.4415443848
 20
109.9372393341
 30
0.0
 10
26.4374576524
 20
109.9574031365
 30
0.0
 10
26.4353125144
 20
109.9728004438
 30
0.0
  0
SPLINE
  5
389
100
AcDbEntity
  8
0
100
AcDbSpline
 62
7
  6
CONTINUOUS
 70
0
 71
3
 72
11
 73
7
 74
0
 42
0.0000001
 43
0.0000001
 44
0.0000000001
 40
0.0
 40
0.0
 40
0.0
 40
0.0
 40
0.2731873751
 40
0.5270451484
 40
0.7669650936
 40
1.0
 40
1.0
 40
1.0
 40
1.0
 10
19.3247527544
 20
119.4034120628
 30
0.0
 10
19.3247527544
 20
119.2578299026
 30
0.0
 10
19.3481032716
 20
118.9759870085
 30
0.0
 10
19.4680815981
 20
118.5813277225
 30
0.0
 10
19.6765721415
 20
118.2486586317
 30
0.0
 10
19.8746326679
 20
118.0841182668
 30
0.0
 10
19.9821804853
 20
118.0220269101
 30
0.0
  0
SPLINE
  5
38A
100
AcDbEntity
  8
0
100
AcDbSpline
 62
7
  6
CONTINUOUS
 70
0
 71
3
 72
9
 73
5
 74
0
 42
0.0000001
 43
0.0000001
 44
0.0000000001
 40
0.0
 40
0.0
 40
0.0
 40
0.0
 40
0.5210727192
 40
1.0
 40
1.0
 40
1.0
 40
1.0
 10
19.7865570826
 20
121.1053224875
 30
0.0
 10
19.6429211091
 20
120.8323580071
 30
0.0
 10
19.4190355066
 20
120.279479472
 30
0.0
 10
19.3247527544
 20
119.6869132413
 30
0.0
 10
19.3247527544
 20
119.4034120628
 30
0.0
  0
SPLINE
  5
38B
100
AcDbEntity
  8
0
100
AcDbSpline
 62
7
  6
CONTINUOUS
 70
0
 71
3
 72
9
 73
5
 74
0
 42
0.0000001
 43
0.0000001
 44
0.0000000001
 40
0.0
 40
0.0
 40
0.0
 40
0.0
 40
0.4749086667
 40
1.0
 40
1.0
 40
1.0
 40
1.0
 10
19.4126216033
 20
119.2809388166
 30
0.0
 10
19.4126216033
 20
119.5570412347
 30
0.0
 10
19.5028659395
 20
120.1388374328
 30
0.0
 10
19.7152541164
 20
120.6843837697
 30
0.0
 10
19.8524366685
 20
120.9571022542
 30
0.0
  0
SPLINE
  5
38C
100
AcDbEntity
  8
0
100
AcDbSpline
 62
7
  6
CONTINUOUS
 70
0
 71
3
 72
11
 73
7
 74
0
 42
0.0000001
 43
0.0000001
 44
0.0000000001
 40
0.0
 40
0.0
 40
0.0
 40
0.0
 40
0.2177761818
 40
0.4509348599
 40
0.7102271681
 40
1.0
 40
1.0
 40
1.0
 40
1.0
 10
19.9821869087
 20
118.0220380362
 30
0.0
 10
19.8914753307
 20
118.0744092101
 30
0.0
 10
19.7217229848
 20
118.2170808891
 30
0.0
 10
19.5410839555
 20
118.5125091691
 30
0.0
 10
19.4336925473
 20
118.8765750145
 30
0.0
 10
19.4126216033
 20
119.1415663681
 30
0.0
 10
19.4126216033
 20
119.2809388166
 30
0.0
  0
SPLINE
  5
38D
100
AcDbEntity
  8
0
100
AcDbSpline
 62
7
  6
CONTINUOUS
 70
0
 71
3
 72
9
 73
5
 74
0
 42
0.0000001
 43
0.0000001
 44
0.0000000001
 40
0.0
 40
0.0
 40
0.0
 40
0.0
 40
0.2592908879
 40
1.0
 40
1.0
 40
1.0
 40
1.0
 10
31.3850805904
 20
107.1151151622
 30
0.0
 10
31.3858133698
 20
107.1098554406
 30
0.0
 10
31.389068939
 20
107.0896354667
 30
0.0
 10
31.3941006488
 20
107.0696791422
 30
0.0
 10
31.3990002901
 20
107.0553217351
 30
0.0
  0
SPLINE
  5
38E
100
AcDbEntity
  8
0
100
AcDbSpline
 62
7
  6
CONTINUOUS
 70
0
 71
3
 72
8
 73
4
 74
0
 42
0.0000001
 43
0.0000001
 44
0.0000000001
 40
0.0
 40
0.0
 40
0.0
 40
0.0
 40
1.0
 40
1.0
 40
1.0
 40
1.0
 10
31.3990002901
 20
107.0553217351
 30
0.0
 10
31.4027789707
 20
107.0442490764
 30
0.0
 10
31.4072753404
 20
107.0333866912
 30
0.0
 10
31.4125508422
 20
107.0229439292
 30
0.0
  0
SPLINE
  5
38F
100
AcDbEntity
  8
0
100
AcDbSpline
 62
7
  6
CONTINUOUS
 70
0
 71
3
 72
9
 73
5
 74
0
 42
0.0000001
 43
0.0000001
 44
0.0000000001
 40
0.0
 40
0.0
 40
0.0
 40
0.0
 40
0.2594208377
 40
1.0
 40
1.0
 40
1.0
 40
1.0
 10
31.4125508422
 20
107.0229439292
 30
0.0
 10
31.4150961555
 20
107.017905527
 30
0.0
 10
31.4256017764
 20
106.9988502581
 30
0.0
 10
31.4390792439
 20
106.9813717246
 30
0.0
 10
31.4505810993
 20
106.9700852145
 30
0.0
  0
SPLINE
  5
390
100
AcDbEntity
  8
0
100
AcDbSpline
 62
7
  6
CONTINUOUS
 70
0
 71
3
 72
9
 73
5
 74
0
 42
0.0000001
 43
0.0000001
 44
0.0000000001
 40
0.0
 40
0.0
 40
0.0
 40
0.0
 40
0.2392749145
 40
1.0
 40
1.0
 40
1.0
 40
1.0
 10
24.765131358
 20
118.2852288317
 30
0.0
 10
24.6912895216
 20
118.6374685341
 30
0.0
 10
24.4260693759
 20
120.1185937215
 30
0.0
 10
24.3270503849
 20
121.6273912854
 30
0.0
 10
24.3270503849
 20
122.7716074545
 30
0.0
  0
SPLINE
  5
391
100
AcDbEntity
  8
0
100
AcDbSpline
 62
7
  6
CONTINUOUS
 70
0
 71
3
 72
8
 73
4
 74
0
 42
0.0000001
 43
0.0000001
 44
0.0000000001
 40
0.0
 40
0.0
 40
0.0
 40
0.0
 40
1.0
 40
1.0
 40
1.0
 40
1.0
 10
31.4847888098
 20
106.9440383223
 30
0.0
 10
31.4723776398
 20
106.9512051844
 30
0.0
 10
31.4608105219
 20
106.960047312
 30
0.0
 10
31.4505810873
 20
106.9700852263
 30
0.0
  0
SPLINE
  5
392
100
AcDbEntity
  8
0
100
AcDbSpline
 62
7
  6
CONTINUOUS
 70
0
 71
3
 72
9
 73
5
 74
0
 42
0.0000001
 43
0.0000001
 44
0.0000000001
 40
0.0
 40
0.0
 40
0.0
 40
0.0
 40
0.4669405206
 40
1.0
 40
1.0
 40
1.0
 40
1.0
 10
31.4505810873
 20
106.9700852263
 30
0.0
 10
31.4326620762
 20
106.9876687492
 30
0.0
 10
31.402413859
 20
107.0338790378
 30
0.0
 10
31.3890352934
 20
107.0867292126
 30
0.0
 10
31.3850805902
 20
107.1151151638
 30
0.0
  0
SPLINE
  5
393
100
AcDbEntity
  8
0
100
AcDbSpline
 62
7
  6
CONTINUOUS
 70
0
 71
3
 72
9
 73
5
 74
0
 42
0.0000001
 43
0.0000001
 44
0.0000000001
 40
0.0
 40
0.0
 40
0.0
 40
0.0
 40
0.2610046213
 40
1.0
 40
1.0
 40
1.0
 40
1.0
 10
43.4190129638
 20
111.7491070825
 30
0.0
 10
43.4190129638
 20
111.3565494457
 30
0.0
 10
43.4531536784
 20
109.852992587
 30
0.0
 10
43.6290482137
 20
108.3505502373
 30
0.0
 10
43.857093937
 20
107.2627284597
 30
0.0
  0
SPLINE
  5
394
100
AcDbEntity
  8
0
100
AcDbSpline
 62
7
  6
CONTINUOUS
 70
0
 71
3
 72
9
 73
5
 74
0
 42
0.0000001
 43
0.0000001
 44
0.0000000001
 40
0.0
 40
0.0
 40
0.0
 40
0.0
 40
0.5380266128
 40
1.0
 40
1.0
 40
1.0
 40
1.0
 10
50.4770431692
 20
96.0926147917
 30
0.0
 10
50.4820756044
 20
96.056493127
 30
0.0
 10
50.5008202566
 20
95.9893632686
 30
0.0
 10
50.549632821
 20
95.937197637
 30
0.0
 10
50.5767513888
 20
95.9215379503
 30
0.0
  0
SPLINE
  5
395
100
AcDbEntity
  8
0
100
AcDbSpline
 62
7
  6
CONTINUOUS
 70
0
 71
3
 72
15
 73
11
 74
0
 42
0.0000001
 43
0.0000001
 44
0.0000000001
 40
0.0
 40
0.0
 40
0.0
 40
0.0
 40
0.1485799382
 40
0.2895094414
 40
0.4227248233
 40
0.5486416834
 40
0.6680017574
 40
0.7819388443
 40
0.8919872085
 40
1.0
 40
1.0
 40
1.0
 40
1.0
 10
145.9496434333
 20
91.3372308256
 30
0.0
 10
145.9496434333
 20
91.8580788037
 30
0.0
 10
145.9076246341
 20
92.8736543332
 30
0.0
 10
145.7077524877
 20
94.3443309639
 30
0.0
 10
145.3737989127
 20
95.7093868998
 30
0.0
 10
144.9084098048
 20
96.9555361104
 30
0.0
 10
144.3152351762
 20
98.070843268
 30
0.0
 10
143.5988067714
 20
99.0438905547
 30
0.0
 10
142.7657362063
 20
99.8636703863
 30
0.0
 10
142.1353082595
 20
100.3036335208
 30
0.0
 10
141.8073861403
 20
100.4929348905
 30
0.0
  0
SPLINE
  5
396
100
AcDbEntity
  8
0
100
AcDbSpline
 62
7
  6
CONTINUOUS
 70
0
 71
3
 72
25
 73
21
 74
0
 42
0.0000001
 43
0.0000001
 44
0.0000000001
 40
0.0
 40
0.0
 40
0.0
 40
0.0
 40
0.0623836625
 40
0.1287229339
 40
0.1983156533
 40
0.2702920759
 40
0.3436693223
 40
0.4174010726
 40
0.490425363
 40
0.5617116904
 40
0.6303088013
 40
0.6953963972
 40
0.756344124
 40
0.8127816236
 40
0.8646824032
 40
0.9124574351
 40
0.9351020824
 40
0.9571074928
 40
0.9786679064
 40
1.0
 40
1.0
 40
1.0
 40
1.0
 10
119.4332495378
 20
76.0280750554
 30
0.0
 10
119.4332495378
 20
76.7540856992
 30
0.0
 10
119.5316052201
 20
78.2531418315
 30
0.0
 10
119.9363288156
 20
80.5292512061
 30
0.0
 10
120.5943291276
 20
82.8615260064
 30
0.0
 10
121.4915312339
 20
85.2000902123
 30
0.0
 10
122.6088401007
 20
87.4953775275
 30
0.0
 10
123.9224230041
 20
89.6984132642
 30
0.0
 10
125.4042590843
 20
91.7622078077
 30
0.0
 10
127.0227814465
 20
93.6427776402
 30
0.0
 10
128.7436489341
 20
95.3001476548
 30
0.0
 10
130.5306649747
 20
96.6991839182
 30
0.0
 10
132.3466638176
 20
97.8102511467
 30
0.0
 10
134.1549599333
 20
98.6093810721
 30
0.0
 10
135.9188859791
 20
99.078236388
 30
0.0
 10
137.3495350636
 20
99.1832768386
 30
0.0
 10
138.4225369094
 20
99.0825799533
 30
0.0
 10
139.177999643
 20
98.9214671509
 30
0.0
 10
139.8935883873
 20
98.6741114963
 30
0.0
 10
140.3424028906
 20
98.4519791981
 30
0.0
 10
140.5574087493
 20
98.3278615851
 30
0.0
  0
SPLINE
  5
397
100
AcDbEntity
  8
0
100
AcDbSpline
 62
7
  6
CONTINUOUS
 70
0
 71
3
 72
12
 73
8
 74
0
 42
0.0000001
 43
0.0000001
 44
0.0000000001
 40
0.0
 40
0.0
 40
0.0
 40
0.0
 40
0.2895821567
 40
0.5486359363
 40
0.7816376878
 40
0.8918387163
 40
1.0
 40
1.0
 40
1.0
 40
1.0
 10
149.8387027621
 20
113.5868478741
 30
0.0
 10
149.8387027621
 20
113.8402786651
 30
0.0
 10
149.8003050279
 20
114.3221445654
 30
0.0
 10
149.6054616836
 20
114.983808271
 30
0.0
 10
149.325491238
 20
115.4403549846
 30
0.0
 10
149.0427070021
 20
115.7184130564
 30
0.0
 10
148.8851139823
 20
115.8284427978
 30
0.0
 10
148.8031368905
 20
115.8757712207
 30
0.0
  0
SPLINE
  5
398
100
AcDbEntity
  8
0
100
AcDbSpline
 62
7
  6
CONTINUOUS
 70
0
 71
3
 72
15
 73
11
 74
0
 42
0.0000001
 43
0.0000001
 44
0.0000000001
 40
0.0
 40
0.0
 40
0.0
 40
0.0
 40
0.1141543519
 40
0.237325601
 40
0.366974755
 40
0.4999984147
 40
0.6330222943
 40
0.7626720931
 40
0.8858443543
 40
1.0
 40
1.0
 40
1.0
 40
1.0
 10
146.3031835761
 20
70.7205062483
 30
0.0
 10
146.545218353
 20
70.8602442578
 30
0.0
 10
147.0232803719
 20
71.1953623531
 30
0.0
 10
147.6810676065
 20
71.8107756894
 30
0.0
 10
148.2872540906
 20
72.538240173
 30
0.0
 10
148.8190074878
 20
73.3504662827
 30
0.0
 10
149.2565356692
 20
74.2170948464
 30
0.0
 10
149.5834430094
 20
75.1058056281
 30
0.0
 10
149.7875123723
 20
75.9831802548
 30
0.0
 10
149.8387027621
 20
76.5647586656
 30
0.0
 10
149.8387027621
 20
76.8442391033
 30
0.0
  0
SPLINE
  5
399
100
AcDbEntity
  8
0
100
AcDbSpline
 62
7
  6
CONTINUOUS
 70
0
 71
3
 72
11
 73
7
 74
0
 42
0.0000001
 43
0.0000001
 44
0.0000000001
 40
0.0
 40
0.0
 40
0.0
 40
0.0
 40
0.2177798624
 40
0.4509243774
 40
0.7102597636
 40
1.0
 40
1.0
 40
1.0
 40
1.0
 10
113.2684443827
 20
54.3274221223
 30
0.0
 10
113.1777226206
 20
54.3797777237
 30
0.0
 10
113.0080073342
 20
54.5224881086
 30
0.0
 10
112.8273252446
 20
54.8178963484
 30
0.0
 10
112.7199709001
 20
55.1819751716
 30
0.0
 10
112.6988772601
 20
55.4469639649
 30
0.0
 10
112.6988772601
 20
55.586319758
 30
0.0
  0
SPLINE
  5
39A
100
AcDbEntity
  8
0
100
AcDbSpline
 62
7
  6
CONTINUOUS
 70
0
 71
3
 72
17
 73
13
 74
0
 42
0.0000001
 43
0.0000001
 44
0.0000000001
 40
0.0
 40
0.0
 40
0.0
 40
0.0
 40
0.1286927192
 40
0.2702772184
 40
0.4174336658
 40
0.5617787524
 40
0.695449257
 40
0.8127115591
 40
0.8646775202
 40
0.9125099615
 40
0.9571398666
 40
1.0
 40
1.0
 40
1.0
 40
1.0
 10
144.1987461128
 20
110.1459959102
 30
0.0
 10
144.1987461128
 20
110.381059143
 30
0.0
 10
144.2644990047
 20
110.8752982458
 30
0.0
 10
144.5099569195
 20
111.6009751112
 30
0.0
 10
144.8881436499
 20
112.3000454019
 30
0.0
 10
145.3687035286
 20
112.9151764806
 30
0.0
 10
145.9123602817
 20
113.3966879211
 30
0.0
 10
146.404455071
 20
113.6657082039
 30
0.0
 10
146.7893730401
 20
113.7681783325
 30
0.0
 10
147.0543039262
 20
113.7876060411
 30
0.0
 10
147.3010064484
 20
113.7515122539
 30
0.0
 10
147.4504450845
 20
113.6893667178
 30
0.0
 10
147.5182500948
 20
113.6502363922
 30
0.0
  0
SPLINE
  5
39B
100
AcDbEntity
  8
0
100
AcDbSpline
 62
7
  6
CONTINUOUS
 70
0
 71
3
 72
17
 73
13
 74
0
 42
0.0000001
 43
0.0000001
 44
0.0000000001
 40
0.0
 40
0.0
 40
0.0
 40
0.0
 40
0.1286927192
 40
0.2702772184
 40
0.4174336658
 40
0.5617787524
 40
0.695449257
 40
0.8127115591
 40
0.8646775202
 40
0.9125099615
 40
0.9571398666
 40
1.0
 40
1.0
 40
1.0
 40
1.0
 10
112.6988772601
 20
91.9596467065
 30
0.0
 10
112.6988772601
 20
92.1947099393
 30
0.0
 10
112.764630152
 20
92.6889490422
 30
0.0
 10
113.0100880668
 20
93.4146259076
 30
0.0
 10
113.3882747972
 20
94.1136961982
 30
0.0
 10
113.8688346759
 20
94.7288272769
 30
0.0
 10
114.412491429
 20
95.2103387174
 30
0.0
 10
114.9045862183
 20
95.4793590002
 30
0.0
 10
115.2895041874
 20
95.5818291288
 30
0.0
 10
115.5544350735
 20
95.6012568374
 30
0.0
 10
115.8011375957
 20
95.5651630502
 30
0.0
 10
115.9505762318
 20
95.5030175142
 30
0.0
 10
116.0183812421
 20
95.4638871885
 30
0.0
  0
SPLINE
  5
39C
100
AcDbEntity
  8
0
100
AcDbSpline
 62
7
  6
CONTINUOUS
 70
0
 71
3
 72
17
 73
13
 74
0
 42
0.0000001
 43
0.0000001
 44
0.0000000001
 40
0.0
 40
0.0
 40
0.0
 40
0.0
 40
0.1286927192
 40
0.2702772184
 40
0.4174336658
 40
0.5617787524
 40
0.695449257
 40
0.8127115591
 40
0.8646775202
 40
0.9125099615
 40
0.9571398666
 40
1.0
 40
1.0
 40
1.0
 40
1.0
 10
112.6988772601
 20
55.586319758
 30
0.0
 10
112.6988772601
 20
55.8213829909
 30
0.0
 10
112.764630152
 20
56.3156220937
 30
0.0
 10
113.0100880668
 20
57.0412989591
 30
0.0
 10
113.3882747972
 20
57.7403692497
 30
0.0
 10
113.8688346759
 20
58.3555003284
 30
0.0
 10
114.412491429
 20
58.8370117689
 30
0.0
 10
114.9045862183
 20
59.1060320517
 30
0.0
 10
115.2895041874
 20
59.2085021803
 30
0.0
 10
115.5544350735
 20
59.2279298889
 30
0.0
 10
115.8011375957
 20
59.1918361017
 30
0.0
 10
115.9505762318
 20
59.1296905657
 30
0.0
 10
116.0183812421
 20
59.09056024
 30
0.0
  0
SPLINE
  5
39D
100
AcDbEntity
  8
0
100
AcDbSpline
 62
7
  6
CONTINUOUS
 70
0
 71
3
 72
11
 73
7
 74
0
 42
0.0000001
 43
0.0000001
 44
0.0000000001
 40
0.0
 40
0.0
 40
0.0
 40
0.0
 40
0.2177798624
 40
0.4509243774
 40
0.7102597636
 40
1.0
 40
1.0
 40
1.0
 40
1.0
 10
113.2684443827
 20
90.7007490708
 30
0.0
 10
113.1777226206
 20
90.7531046722
 30
0.0
 10
113.0080073342
 20
90.895815057
 30
0.0
 10
112.8273252446
 20
91.1912232968
 30
0.0
 10
112.7199709001
 20
91.5553021201
 30
0.0
 10
112.6988772601
 20
91.8202909134
 30
0.0
 10
112.6988772601
 20
91.9596467065
 30
0.0
  0
SPLINE
  5
39E
100
AcDbEntity
  8
0
100
AcDbSpline
 62
7
  6
CONTINUOUS
 70
0
 71
3
 72
12
 73
8
 74
0
 42
0.0000001
 43
0.0000001
 44
0.0000000001
 40
0.0
 40
0.0
 40
0.0
 40
0.0
 40
0.2895806991
 40
0.5486339526
 40
0.7816363052
 40
0.891837967
 40
1.0
 40
1.0
 40
1.0
 40
1.0
 10
139.9391960497
 20
119.3023059811
 30
0.0
 10
140.1586640721
 20
119.4290151465
 30
0.0
 10
140.5951525637
 20
119.6366847373
 30
0.0
 10
141.2655639634
 20
119.7987703716
 30
0.0
 10
141.8009092917
 20
119.7845850838
 30
0.0
 10
142.1830943992
 20
119.6787239209
 30
0.0
 10
142.3571749511
 20
119.5972648779
 30
0.0
 10
142.4391493642
 20
119.5499380114
 30
0.0
  0
SPLINE
  5
39F
100
AcDbEntity
  8
0
100
AcDbSpline
 62
7
  6
CONTINUOUS
 70
0
 71
3
 72
15
 73
11
 74
0
 42
0.0000001
 43
0.0000001
 44
0.0000000001
 40
0.0
 40
0.0
 40
0.0
 40
0.0
 40
0.114155658
 40
0.2373279333
 40
0.3669777387
 40
0.5000016213
 40
0.633025278
 40
0.7626744253
 40
0.8858456604
 40
1.0
 40
1.0
 40
1.0
 40
1.0
 10
104.584004189
 20
94.8075862019
 30
0.0
 10
104.584004189
 20
95.0870666697
 30
0.0
 10
104.6351945956
 20
95.6686451445
 30
0.0
 10
104.8392639883
 20
96.5460198477
 30
0.0
 10
105.1661713783
 20
97.4347306734
 30
0.0
 10
105.603699589
 20
98.3013592401
 30
0.0
 10
106.1354529983
 20
99.1135853229
 30
0.0
 10
106.7416394691
 20
99.8410497413
 30
0.0
 10
107.3994266524
 20
100.4564630136
 30
0.0
 10
107.8774886242
 20
100.7915810624
 30
0.0
 10
108.1195233751
 20
100.9313190569
 30
0.0
  0
SPLINE
  5
3A0
100
AcDbEntity
  8
0
100
AcDbSpline
 62
7
  6
CONTINUOUS
 70
0
 71
3
 72
11
 73
7
 74
0
 42
0.0000001
 43
0.0000001
 44
0.0000000001
 40
0.0
 40
0.0
 40
0.0
 40
0.0
 40
0.2177798624
 40
0.4509243774
 40
0.7102597636
 40
1.0
 40
1.0
 40
1.0
 40
1.0
 10
144.7683132354
 20
108.8870982745
 30
0.0
 10
144.6775914733
 20
108.9394538759
 30
0.0
 10
144.5078761869
 20
109.0821642607
 30
0.0
 10
144.3271940973
 20
109.3775725005
 30
0.0
 10
144.2198397528
 20
109.7416513238
 30
0.0
 10
144.1987461128
 20
110.0066401171
 30
0.0
 10
144.1987461128
 20
110.1459959102
 30
0.0
  0
SPLINE
  5
3A1
100
AcDbEntity
  8
0
100
AcDbSpline
 62
7
  6
CONTINUOUS
 70
0
 71
3
 72
12
 73
8
 74
0
 42
0.0000001
 43
0.0000001
 44
0.0000000001
 40
0.0
 40
0.0
 40
0.0
 40
0.0
 40
0.1081612896
 40
0.2183623225
 40
0.4513640816
 40
0.710417852
 40
1.0
 40
1.0
 40
1.0
 40
1.0
 10
105.6195700606
 20
55.7760540844
 30
0.0
 10
105.53759296
 20
55.8233825025
 30
0.0
 10
105.3799999392
 20
55.9334122604
 30
0.0
 10
105.0972156881
 20
56.2114703378
 30
0.0
 10
104.8172452582
 20
56.6680170668
 30
0.0
 10
104.6224019137
 20
57.329680761
 30
0.0
 10
104.584004189
 20
57.8115466475
 30
0.0
 10
104.584004189
 20
58.064977431
 30
0.0
  0
SPLINE
  5
3A2
100
AcDbEntity
  8
0
100
AcDbSpline
 62
7
  6
CONTINUOUS
 70
0
 71
3
 72
15
 73
11
 74
0
 42
0.0000001
 43
0.0000001
 44
0.0000000001
 40
0.0
 40
0.0
 40
0.0
 40
0.0
 40
0.1080121482
 40
0.2180600108
 40
0.3319969876
 40
0.4513573887
 40
0.5772745673
 40
0.7104903964
 40
0.8514202644
 40
1.0
 40
1.0
 40
1.0
 40
1.0
 10
123.0577246288
 20
68.0168339112
 30
0.0
 10
122.7707945092
 20
68.1824716374
 30
0.0
 10
122.2191732761
 20
68.5674377763
 30
0.0
 10
121.4902388168
 20
69.2847415905
 30
0.0
 10
120.8633616343
 20
70.1361552329
 30
0.0
 10
120.3443339437
 20
71.1120509029
 30
0.0
 10
119.9371144363
 20
72.2024333999
 30
0.0
 10
119.6449044712
 20
73.3968608585
 30
0.0
 10
119.470016247
 20
74.6837046749
 30
0.0
 10
119.4332495378
 20
75.5723337167
 30
0.0
 10
119.4332495378
 20
76.0280750554
 30
0.0
  0
SPLINE
  5
3A3
100
AcDbEntity
  8
0
100
AcDbSpline
 62
7
  6
CONTINUOUS
 70
0
 71
3
 72
12
 73
8
 74
0
 42
0.0000001
 43
0.0000001
 44
0.0000000001
 40
0.0
 40
0.0
 40
0.0
 40
0.0
 40
0.1081620389
 40
0.2183637051
 40
0.4513660653
 40
0.7104193096
 40
1.0
 40
1.0
 40
1.0
 40
1.0
 10
111.983557587
 20
52.1018872937
 30
0.0
 10
112.0655320003
 20
52.0545604172
 30
0.0
 10
112.2396125669
 20
51.9731013815
 30
0.0
 10
112.6217976869
 20
51.8672402082
 30
0.0
 10
113.1571430207
 20
51.8530549417
 30
0.0
 10
113.8275544106
 20
52.0151405701
 30
0.0
 10
114.2640428855
 20
52.2228101623
 30
0.0
 10
114.4835109014
 20
52.3495193241
 30
0.0
  0
SPLINE
  5
3A4
100
AcDbEntity
  8
0
100
AcDbSpline
 62
7
  6
CONTINUOUS
 70
0
 71
3
 72
17
 73
13
 74
0
 42
0.0000001
 43
0.0000001
 44
0.0000000001
 40
0.0
 40
0.0
 40
0.0
 40
0.0
 40
0.0469625764
 40
0.0945745545
 40
0.1434417645
 40
0.1940923725
 40
0.3021802278
 40
0.4211641867
 40
0.5515845754
 40
0.6927302937
 40
0.8429654548
 40
1.0
 40
1.0
 40
1.0
 40
1.0
 10
121.8077472378
 20
65.8517606058
 30
0.0
 10
122.0876206489
 20
65.690196573
 30
0.0
 10
122.6758729538
 20
65.4055672092
 30
0.0
 10
123.6198996145
 20
65.1068101903
 30
0.0
 10
124.6210665563
 20
64.936486691
 30
0.0
 10
126.0519846894
 20
64.8807428201
 30
0.0
 10
127.9602527543
 20
65.1570550674
 30
0.0
 10
130.2900393199
 20
65.9840299836
 30
0.0
 10
132.6535630758
 20
67.2839413365
 30
0.0
 10
134.9891892503
 20
69.0201170026
 30
0.0
 10
137.2354076252
 20
71.1447061529
 30
0.0
 10
138.6111157775
 20
72.7560957024
 30
0.0
 10
139.2715854854
 20
73.611344551
 30
0.0
  0
SPLINE
  5
3A5
100
AcDbEntity
  8
0
100
AcDbSpline
 62
7
  6
CONTINUOUS
 70
0
 71
3
 72
11
 73
7
 74
0
 42
0.0000001
 43
0.0000001
 44
0.0000000001
 40
0.0
 40
0.0
 40
0.0
 40
0.0
 40
0.2660555568
 40
0.5231985671
 40
0.7686140004
 40
1.0
 40
1.0
 40
1.0
 40
1.0
 10
143.8106946131
 20
81.4671831627
 30
0.0
 10
144.153412829
 20
82.3002803598
 30
0.0
 10
144.7606403839
 20
83.9671025182
 30
0.0
 10
145.4353496148
 20
86.4842039972
 30
0.0
 10
145.8494967841
 20
88.9383898659
 30
0.0
 10
145.9496434333
 20
90.5537816953
 30
0.0
 10
145.9496434333
 20
91.3372308256
 30
0.0
  0
SPLINE
  5
3A6
100
AcDbEntity
  8
0
100
AcDbSpline
 62
7
  6
CONTINUOUS
 70
0
 71
3
 72
11
 73
7
 74
0
 42
0.0000001
 43
0.0000001
 44
0.0000000001
 40
0.0
 40
0.0
 40
0.0
 40
0.0
 40
0.2177798624
 40
0.4509243774
 40
0.7102597636
 40
1.0
 40
1.0
 40
1.0
 40
1.0
 10
116.0183812421
 20
95.4638871885
 30
0.0
 10
116.1091030042
 20
95.4115315871
 30
0.0
 10
116.2788182906
 20
95.2688212022
 30
0.0
 10
116.4595003802
 20
94.9734129624
 30
0.0
 10
116.5668547247
 20
94.6093341392
 30
0.0
 10
116.5879483647
 20
94.3443453459
 30
0.0
 10
116.5879483647
 20
94.2049895528
 30
0.0
  0
SPLINE
  5
3A7
100
AcDbEntity
  8
0
100
AcDbSpline
 62
7
  6
CONTINUOUS
 70
0
 71
3
 72
11
 73
7
 74
0
 42
0.0000001
 43
0.0000001
 44
0.0000000001
 40
0.0
 40
0.0
 40
0.0
 40
0.0
 40
0.232068565
 40
0.4774996705
 40
0.7342809358
 40
1.0
 40
1.0
 40
1.0
 40
1.0
 10
144.1818838403
 20
90.3166204409
 30
0.0
 10
144.1818838403
 20
89.6742954978
 30
0.0
 10
144.1050085357
 20
88.3519188939
 30
0.0
 10
143.785450596
 20
86.3419806236
 30
0.0
 10
143.2636473172
 20
84.278850544
 30
0.0
 10
142.7931593514
 20
82.9093916364
 30
0.0
 10
142.5273489823
 20
82.2236427332
 30
0.0
  0
SPLINE
  5
3A8
100
AcDbEntity
  8
0
100
AcDbSpline
 62
7
  6
CONTINUOUS
 70
0
 71
3
 72
17
 73
13
 74
0
 42
0.0000001
 43
0.0000001
 44
0.0000000001
 40
0.0
 40
0.0
 40
0.0
 40
0.0
 40
0.1570593979
 40
0.3070108481
 40
0.4477481061
 40
0.5778095265
 40
0.6966317374
 40
0.804851663
 40
0.8556829602
 40
0.9047989324
 40
0.9527104784
 40
1.0
 40
1.0
 40
1.0
 40
1.0
 10
137.9812938208
 20
74.3533396401
 30
0.0
 10
137.4071735578
 20
73.6402307066
 30
0.0
 10
136.2165491295
 20
72.2993713278
 30
0.0
 10
134.2837427508
 20
70.5378660178
 30
0.0
 10
132.2844176061
 20
69.1062740474
 30
0.0
 10
130.2685863399
 20
68.0422399574
 30
0.0
 10
128.2862511706
 20
67.374540655
 30
0.0
 10
126.6661302968
 20
67.1634244032
 30
0.0
 10
125.4514523639
 20
67.2242764032
 30
0.0
 10
124.6005484346
 20
67.3765110087
 30
0.0
 10
123.7975046391
 20
67.6354444301
 30
0.0
 10
123.29645274
 20
67.8790220233
 30
0.0
 10
123.0577246288
 20
68.0168339112
 30
0.0
  0
SPLINE
  5
3A9
100
AcDbEntity
  8
0
100
AcDbSpline
 62
7
  6
CONTINUOUS
 70
0
 71
3
 72
12
 73
8
 74
0
 42
0.0000001
 43
0.0000001
 44
0.0000000001
 40
0.0
 40
0.0
 40
0.0
 40
0.0
 40
0.2895821567
 40
0.5486359363
 40
0.7816376878
 40
0.8918387163
 40
1.0
 40
1.0
 40
1.0
 40
1.0
 10
110.9479917154
 20
54.3908106404
 30
0.0
 10
110.9479917154
 20
54.1373798494
 30
0.0
 10
110.9863894496
 20
53.6555139491
 30
0.0
 10
111.1812327939
 20
52.9938502434
 30
0.0
 10
111.4612032395
 20
52.5373035299
 30
0.0
 10
111.7439874754
 20
52.2592454581
 30
0.0
 10
111.9015804952
 20
52.1492157167
 30
0.0
 10
111.983557587
 20
52.1018872937
 30
0.0
  0
SPLINE
  5
3AA
100
AcDbEntity
  8
0
100
AcDbSpline
 62
7
  6
CONTINUOUS
 70
0
 71
3
 72
25
 73
21
 74
0
 42
0.0000001
 43
0.0000001
 44
0.0000000001
 40
0.0
 40
0.0
 40
0.0
 40
0.0
 40
0.0623837441
 40
0.128723062
 40
0.1983157075
 40
0.270292138
 40
0.3436694829
 40
0.4174012771
 40
0.4904255851
 40
0.5617119132
 40
0.6303089954
 40
0.6953965296
 40
0.7563441821
 40
0.812781621
 40
0.8646823709
 40
0.9124574024
 40
0.935102057
 40
0.9571074775
 40
0.978667899
 40
1.0
 40
1.0
 40
1.0
 40
1.0
 10
116.2512704945
 20
75.8239461798
 30
0.0
 10
116.2512704945
 20
76.6536737127
 30
0.0
 10
116.363677404
 20
78.3668824112
 30
0.0
 10
116.8262190315
 20
80.968150928
 30
0.0
 10
117.5782197146
 20
83.6336074682
 30
0.0
 10
118.6035938398
 20
86.3062526225
 30
0.0
 10
119.8805196144
 20
88.9294396971
 30
0.0
 10
121.3817587968
 20
91.447196359
 30
0.0
 10
123.0752868574
 20
93.8058189152
 30
0.0
 10
124.9250272023
 20
95.9550409612
 30
0.0
 10
126.8917325966
 20
97.8491767083
 30
0.0
 10
128.9340353155
 20
99.4480734152
 30
0.0
 10
131.0094605453
 20
100.7178627748
 30
0.0
 10
133.0760827085
 20
101.6311531025
 30
0.0
 10
135.091996974
 20
102.1669875024
 30
0.0
 10
136.727024178
 20
102.2870339906
 30
0.0
 10
137.9533122306
 20
102.1719518683
 30
0.0
 10
138.8166985625
 20
101.9878230052
 30
0.0
 10
139.6345146407
 20
101.7051308576
 30
0.0
 10
140.1474456821
 20
101.451265271
 30
0.0
 10
140.3931667454
 20
101.3094165171
 30
0.0
  0
SPLINE
  5
3AB
100
AcDbEntity
  8
0
100
AcDbSpline
 62
7
  6
CONTINUOUS
 70
0
 71
3
 72
17
 73
13
 74
0
 42
0.0000001
 43
0.0000001
 44
0.0000000001
 40
0.0
 40
0.0
 40
0.0
 40
0.0
 40
0.1286927192
 40
0.2702772184
 40
0.4174336658
 40
0.5617787524
 40
0.695449257
 40
0.8127115591
 40
0.8646775202
 40
0.9125099615
 40
0.9571398666
 40
1.0
 40
1.0
 40
1.0
 40
1.0
 10
148.0878172174
 20
112.3913387565
 30
0.0
 10
148.0878172174
 20
112.1562755236
 30
0.0
 10
148.0220643256
 20
111.6620364208
 30
0.0
 10
147.7766064107
 20
110.9363595554
 30
0.0
 10
147.3984196803
 20
110.2372892648
 30
0.0
 10
146.9178598016
 20
109.6221581861
 30
0.0
 10
146.3742030485
 20
109.1406467456
 30
0.0
 10
145.8821082592
 20
108.8716264628
 30
0.0
 10
145.4971902901
 20
108.7691563341
 30
0.0
 10
145.232259404
 20
108.7497286256
 30
0.0
 10
144.9855568818
 20
108.7858224128
 30
0.0
 10
144.8361182457
 20
108.8479679488
 30
0.0
 10
144.7683132354
 20
108.8870982745
 30
0.0
  0
SPLINE
  5
3AC
100
AcDbEntity
  8
0
100
AcDbSpline
 62
7
  6
CONTINUOUS
 70
0
 71
3
 72
11
 73
7
 74
0
 42
0.0000001
 43
0.0000001
 44
0.0000000001
 40
0.0
 40
0.0
 40
0.0
 40
0.0
 40
0.2177798624
 40
0.4509243774
 40
0.7102597636
 40
1.0
 40
1.0
 40
1.0
 40
1.0
 10
147.5182500948
 20
77.2769094437
 30
0.0
 10
147.6089718569
 20
77.2245538423
 30
0.0
 10
147.7786871433
 20
77.0818434574
 30
0.0
 10
147.9593692329
 20
76.7864352176
 30
0.0
 10
148.0667235774
 20
76.4223563944
 30
0.0
 10
148.0878172174
 20
76.1573676011
 30
0.0
 10
148.0878172174
 20
76.018011808
 30
0.0
  0
SPLINE
  5
3AD
100
AcDbEntity
  8
0
100
AcDbSpline
 62
7
  6
CONTINUOUS
 70
0
 71
3
 72
17
 73
13
 74
0
 42
0.0000001
 43
0.0000001
 44
0.0000000001
 40
0.0
 40
0.0
 40
0.0
 40
0.0
 40
0.1286927192
 40
0.2702772184
 40
0.4174336658
 40
0.5617787524
 40
0.695449257
 40
0.8127115591
 40
0.8646775202
 40
0.9125099615
 40
0.9571398666
 40
1.0
 40
1.0
 40
1.0
 40
1.0
 10
148.0878172174
 20
76.018011808
 30
0.0
 10
148.0878172174
 20
75.7829485751
 30
0.0
 10
148.0220643256
 20
75.2887094723
 30
0.0
 10
147.7766064107
 20
74.5630326069
 30
0.0
 10
147.3984196803
 20
73.8639623163
 30
0.0
 10
146.9178598016
 20
73.2488312376
 30
0.0
 10
146.3742030485
 20
72.7673197971
 30
0.0
 10
145.8821082592
 20
72.4982995143
 30
0.0
 10
145.4971902901
 20
72.3958293857
 30
0.0
 10
145.232259404
 20
72.3764016771
 30
0.0
 10
144.9855568818
 20
72.4124954643
 30
0.0
 10
144.8361182457
 20
72.4746410003
 30
0.0
 10
144.7683132354
 20
72.513771326
 30
0.0
  0
SPLINE
  5
3AE
100
AcDbEntity
  8
0
100
AcDbSpline
 62
7
  6
CONTINUOUS
 70
0
 71
3
 72
15
 73
11
 74
0
 42
0.0000001
 43
0.0000001
 44
0.0000000001
 40
0.0
 40
0.0
 40
0.0
 40
0.0
 40
0.1141543519
 40
0.237325601
 40
0.366974755
 40
0.4999984147
 40
0.6330222943
 40
0.7626720931
 40
0.8858443543
 40
1.0
 40
1.0
 40
1.0
 40
1.0
 10
114.4835109014
 20
97.2571522662
 30
0.0
 10
114.2414761245
 20
97.1174142567
 30
0.0
 10
113.7634141056
 20
96.7822961613
 30
0.0
 10
113.105626871
 20
96.1668828251
 30
0.0
 10
112.4994403869
 20
95.4394183414
 30
0.0
 10
111.9676869897
 20
94.6271922318
 30
0.0
 10
111.5301588083
 20
93.760563668
 30
0.0
 10
111.2032514681
 20
92.8718528864
 30
0.0
 10
110.9991821052
 20
91.9944782597
 30
0.0
 10
110.9479917154
 20
91.4128998489
 30
0.0
 10
110.9479917154
 20
91.1334194112
 30
0.0
  0
SPLINE
  5
3AF
100
AcDbEntity
  8
0
100
AcDbSpline
 62
7
  6
CONTINUOUS
 70
0
 71
3
 72
17
 73
13
 74
0
 42
0.0000001
 43
0.0000001
 44
0.0000000001
 40
0.0
 40
0.0
 40
0.0
 40
0.0
 40
0.1286927192
 40
0.2702772184
 40
0.4174336658
 40
0.5617787524
 40
0.695449257
 40
0.8127115591
 40
0.8646775202
 40
0.9125099615
 40
0.9571398666
 40
1.0
 40
1.0
 40
1.0
 40
1.0
 10
116.5879483647
 20
94.2049895528
 30
0.0
 10
116.5879483647
 20
93.9699263199
 30
0.0
 10
116.5221954728
 20
93.4756872171
 30
0.0
 10
116.276737558
 20
92.7500103517
 30
0.0
 10
115.8985508276
 20
92.0509400611
 30
0.0
 10
115.4179909489
 20
91.4358089824
 30
0.0
 10
114.8743341958
 20
90.9542975419
 30
0.0
 10
114.3822394065
 20
90.6852772591
 30
0.0
 10
113.9973214374
 20
90.5828071304
 30
0.0
 10
113.7323905513
 20
90.5633794219
 30
0.0
 10
113.4856880291
 20
90.5994732091
 30
0.0
 10
113.336249393
 20
90.6616187451
 30
0.0
 10
113.2684443827
 20
90.7007490708
 30
0.0
  0
SPLINE
  5
3B0
100
AcDbEntity
  8
0
100
AcDbSpline
 62
7
  6
CONTINUOUS
 70
0
 71
3
 72
11
 73
7
 74
0
 42
0.0000001
 43
0.0000001
 44
0.0000000001
 40
0.0
 40
0.0
 40
0.0
 40
0.0
 40
0.2177798624
 40
0.4509243774
 40
0.7102597636
 40
1.0
 40
1.0
 40
1.0
 40
1.0
 10
147.5182500948
 20
113.6502363922
 30
0.0
 10
147.6089718569
 20
113.5978807908
 30
0.0
 10
147.7786871433
 20
113.4551704059
 30
0.0
 10
147.9593692329
 20
113.1597621661
 30
0.0
 10
148.0667235774
 20
112.7956833429
 30
0.0
 10
148.0878172174
 20
112.5306945495
 30
0.0
 10
148.0878172174
 20
112.3913387565
 30
0.0
  0
SPLINE
  5
3B1
100
AcDbEntity
  8
0
100
AcDbSpline
 62
7
  6
CONTINUOUS
 70
0
 71
3
 72
12
 73
8
 74
0
 42
0.0000001
 43
0.0000001
 44
0.0000000001
 40
0.0
 40
0.0
 40
0.0
 40
0.0
 40
0.1081620389
 40
0.2183637051
 40
0.4513660653
 40
0.7104193096
 40
1.0
 40
1.0
 40
1.0
 40
1.0
 10
148.8031368905
 20
115.8757712207
 30
0.0
 10
148.7211624772
 20
115.9230980973
 30
0.0
 10
148.5470819106
 20
116.004557133
 30
0.0
 10
148.1648967906
 20
116.1104183063
 30
0.0
 10
147.6295514568
 20
116.1246035728
 30
0.0
 10
146.9591400669
 20
115.9625179443
 30
0.0
 10
146.522651592
 20
115.7548483521
 30
0.0
 10
146.3031835761
 20
115.6281391904
 30
0.0
  0
SPLINE
  5
3B2
100
AcDbEntity
  8
0
100
AcDbSpline
 62
7
  6
CONTINUOUS
 70
0
 71
3
 72
17
 73
13
 74
0
 42
0.0000001
 43
0.0000001
 44
0.0000000001
 40
0.0
 40
0.0
 40
0.0
 40
0.0
 40
0.1286927192
 40
0.2702772184
 40
0.4174336658
 40
0.5617787524
 40
0.695449257
 40
0.8127115591
 40
0.8646775202
 40
0.9125099615
 40
0.9571398666
 40
1.0
 40
1.0
 40
1.0
 40
1.0
 10
116.5879483647
 20
57.8316626043
 30
0.0
 10
116.5879483647
 20
57.5965993715
 30
0.0
 10
116.5221954728
 20
57.1023602686
 30
0.0
 10
116.276737558
 20
56.3766834032
 30
0.0
 10
115.8985508276
 20
55.6776131126
 30
0.0
 10
115.4179909489
 20
55.0624820339
 30
0.0
 10
114.8743341958
 20
54.5809705934
 30
0.0
 10
114.3822394065
 20
54.3119503106
 30
0.0
 10
113.9973214374
 20
54.209480182
 30
0.0
 10
113.7323905513
 20
54.1900524734
 30
0.0
 10
113.4856880291
 20
54.2261462606
 30
0.0
 10
113.336249393
 20
54.2882917966
 30
0.0
 10
113.2684443827
 20
54.3274221223
 30
0.0
  0
SPLINE
  5
3B3
100
AcDbEntity
  8
0
100
AcDbSpline
 62
7
  6
CONTINUOUS
 70
0
 71
3
 72
16
 73
12
 74
0
 42
0.0000001
 43
0.0000001
 44
0.0000000001
 40
0.0
 40
0.0
 40
0.0
 40
0.0
 40
0.0471477151
 40
0.0954631441
 40
0.1970477689
 40
0.307378054
 40
0.4276753645
 40
0.5580893378
 40
0.6979205686
 40
0.8458276238
 40
1.0
 40
1.0
 40
1.0
 40
1.0
 10
122.570852215
 20
68.4009988133
 30
0.0
 10
122.8139367335
 20
68.3123315203
 30
0.0
 10
123.3183411864
 20
68.1646133837
 30
0.0
 10
124.3878648403
 20
67.9901644965
 30
0.0
 10
125.8284616045
 20
68.0134099044
 30
0.0
 10
127.6186432852
 20
68.4064355795
 30
0.0
 10
129.4638319294
 20
69.1496654842
 30
0.0
 10
131.3250456384
 20
70.2245748401
 30
0.0
 10
133.1632293224
 20
71.6066573586
 30
0.0
 10
134.9383344785
 20
73.2650075317
 30
0.0
 10
136.0364807452
 20
74.510774189
 30
0.0
 10
136.5670861493
 20
75.1698360903
 30
0.0
  0
SPLINE
  5
3B4
100
AcDbEntity
  8
0
100
AcDbSpline
 62
7
  6
CONTINUOUS
 70
0
 71
3
 72
11
 73
7
 74
0
 42
0.0000001
 43
0.0000001
 44
0.0000000001
 40
0.0
 40
0.0
 40
0.0
 40
0.0
 40
0.2657185421
 40
0.5224994463
 40
0.7679311202
 40
1.0
 40
1.0
 40
1.0
 40
1.0
 10
141.1133455612
 20
83.0406827702
 30
0.0
 10
141.3791222462
 20
83.7263863328
 30
0.0
 10
141.8495480677
 20
85.095753456
 30
0.0
 10
142.3712846808
 20
87.1587409739
 30
0.0
 10
142.6907993011
 20
89.1685388069
 30
0.0
 10
142.76766439
 20
90.4908224277
 30
0.0
 10
142.76766439
 20
91.13310195
 30
0.0
  0
SPLINE
  5
3B5
100
AcDbEntity
  8
0
100
AcDbSpline
 62
7
  6
CONTINUOUS
 70
0
 71
3
 72
12
 73
8
 74
0
 42
0.0000001
 43
0.0000001
 44
0.0000000001
 40
0.0
 40
0.0
 40
0.0
 40
0.0
 40
0.2832044661
 40
0.5425960292
 40
0.7798521123
 40
0.8916926959
 40
1.0
 40
1.0
 40
1.0
 40
1.0
 10
142.76766439
 20
91.13310195
 30
0.0
 10
142.76766439
 20
91.8491517804
 30
0.0
 10
142.6788572335
 20
93.2239562503
 30
0.0
 10
142.2401055311
 20
95.1555809804
 30
0.0
 10
141.614950429
 20
96.5753826699
 30
0.0
 10
140.9711731087
 20
97.538940252
 30
0.0
 10
140.6065617653
 20
97.9618810392
 30
0.0
 10
140.4145225249
 20
98.1571005565
 30
0.0
  0
SPLINE
  5
3B6
100
AcDbEntity
  8
0
100
AcDbSpline
 62
7
  6
CONTINUOUS
 70
0
 71
3
 72
15
 73
11
 74
0
 42
0.0000001
 43
0.0000001
 44
0.0000000001
 40
0.0
 40
0.0
 40
0.0
 40
0.0
 40
0.1080121482
 40
0.2180600108
 40
0.3319969876
 40
0.4513573887
 40
0.5772745673
 40
0.7104903964
 40
0.8514202644
 40
1.0
 40
1.0
 40
1.0
 40
1.0
 10
140.5574087493
 20
98.3278615851
 30
0.0
 10
140.8443388689
 20
98.162223859
 30
0.0
 10
141.395960102
 20
97.77725772
 30
0.0
 10
142.1248945613
 20
97.0599539058
 30
0.0
 10
142.7517717438
 20
96.2085402635
 30
0.0
 10
143.2707994344
 20
95.2326445935
 30
0.0
 10
143.6780189418
 20
94.1422620965
 30
0.0
 10
143.9702289069
 20
92.9478346379
 30
0.0
 10
144.1451171311
 20
91.6609908215
 30
0.0
 10
144.1818838403
 20
90.7723617797
 30
0.0
 10
144.1818838403
 20
90.3166204409
 30
0.0
  0
SPLINE
  5
3B7
100
AcDbEntity
  8
0
100
AcDbSpline
 62
7
  6
CONTINUOUS
 70
0
 71
3
 72
11
 73
7
 74
0
 42
0.0000001
 43
0.0000001
 44
0.0000000001
 40
0.0
 40
0.0
 40
0.0
 40
0.0
 40
0.2177798624
 40
0.4509243774
 40
0.7102597636
 40
1.0
 40
1.0
 40
1.0
 40
1.0
 10
116.0183812421
 20
59.09056024
 30
0.0
 10
116.1091030042
 20
59.0382046386
 30
0.0
 10
116.2788182906
 20
58.8954942537
 30
0.0
 10
116.4595003802
 20
58.600086014
 30
0.0
 10
116.5668547247
 20
58.2360071907
 30
0.0
 10
116.5879483647
 20
57.9710183974
 30
0.0
 10
116.5879483647
 20
57.8316626043
 30
0.0
  0
SPLINE
  5
3B8
100
AcDbEntity
  8
0
100
AcDbSpline
 62
7
  6
CONTINUOUS
 70
0
 71
3
 72
25
 73
21
 74
0
 42
0.0000001
 43
0.0000001
 44
0.0000000001
 40
0.0
 40
0.0
 40
0.0
 40
0.0
 40
0.0213321504
 40
0.0428926083
 40
0.0648980348
 40
0.0875426824
 40
0.1353176563
 40
0.1872183556
 40
0.2436557534
 40
0.304603346
 40
0.369690809
 40
0.4382878469
 40
0.5095741296
 40
0.5825982717
 40
0.6563297772
 40
0.7297069419
 40
0.8016834895
 40
0.871276388
 40
0.93761608
 40
1.0
 40
1.0
 40
1.0
 40
1.0
 10
141.8073861403
 20
100.4929348905
 30
0.0
 10
141.5616644968
 20
100.6347839484
 30
0.0
 10
141.0487330945
 20
100.8886515254
 30
0.0
 10
140.2309149776
 20
101.1713415629
 30
0.0
 10
139.3675285782
 20
101.3554720812
 30
0.0
 10
138.1412409655
 20
101.4705515252
 30
0.0
 10
136.506215539
 20
101.3505058013
 30
0.0
 10
134.4903031874
 20
100.8146715172
 30
0.0
 10
132.4236828092
 20
99.9013823767
 30
0.0
 10
130.3482593154
 20
98.6315945853
 30
0.0
 10
128.305958056
 20
97.0326998645
 30
0.0
 10
126.3392536369
 20
95.138566226
 30
0.0
 10
124.4895147927
 20
92.9893474171
 30
0.0
 10
122.795989588
 20
90.6307310415
 30
0.0
 10
121.2947533008
 20
88.1129825654
 30
0.0
 10
120.0178268783
 20
85.4898010498
 30
0.0
 10
118.9924494199
 20
82.8171545148
 30
0.0
 10
118.2404424778
 20
80.1516894277
 30
0.0
 10
117.7778981253
 20
77.5504104962
 30
0.0
 10
117.6654899448
 20
75.837194537
 30
0.0
 10
117.6654899448
 20
75.0074646708
 30
0.0
  0
SPLINE
  5
3B9
100
AcDbEntity
  8
0
100
AcDbSpline
 62
7
  6
CONTINUOUS
 70
0
 71
3
 72
15
 73
11
 74
0
 42
0.0000001
 43
0.0000001
 44
0.0000000001
 40
0.0
 40
0.0
 40
0.0
 40
0.0
 40
0.1485799382
 40
0.2895094414
 40
0.4227248233
 40
0.5486416834
 40
0.6680017574
 40
0.7819388443
 40
0.8919872085
 40
1.0
 40
1.0
 40
1.0
 40
1.0
 10
117.6654899448
 20
75.0074646708
 30
0.0
 10
117.6654899448
 20
74.4866166927
 30
0.0
 10
117.7075087439
 20
73.4710411632
 30
0.0
 10
117.9073808904
 20
72.0003645325
 30
0.0
 10
118.2413344654
 20
70.6353085966
 30
0.0
 10
118.7067235732
 20
69.3891593859
 30
0.0
 10
119.2998982019
 20
68.2738522284
 30
0.0
 10
120.0163266067
 20
67.3008049417
 30
0.0
 10
120.8493971718
 20
66.4810251101
 30
0.0
 10
121.4798251185
 20
66.0410619756
 30
0.0
 10
121.8077472378
 20
65.8517606058
 30
0.0
  0
SPLINE
  5
3BA
100
AcDbEntity
  8
0
100
AcDbSpline
 62
7
  6
CONTINUOUS
 70
0
 71
3
 72
15
 73
11
 74
0
 42
0.0000001
 43
0.0000001
 44
0.0000000001
 40
0.0
 40
0.0
 40
0.0
 40
0.0
 40
0.1080122292
 40
0.2180601555
 40
0.3319970771
 40
0.4513572856
 40
0.5772742381
 40
0.7104900076
 40
0.8514201172
 40
1.0
 40
1.0
 40
1.0
 40
1.0
 10
120.3935277321
 20
66.6682419974
 30
0.0
 10
120.0656073528
 20
66.8575424039
 30
0.0
 10
119.435182782
 20
67.2975041515
 30
0.0
 10
118.6021145255
 20
68.1172800943
 30
0.0
 10
117.8856841907
 20
69.0903239855
 30
0.0
 10
117.2925101895
 20
70.2056316883
 30
0.0
 10
116.827117127
 20
71.4517815587
 30
0.0
 10
116.4931622019
 20
72.8168411888
 30
0.0
 10
116.2932901025
 20
74.2875210367
 30
0.0
 10
116.2512704945
 20
75.3030984191
 30
0.0
 10
116.2512704945
 20
75.8239461798
 30
0.0
  0
SPLINE
  5
3BB
100
AcDbEntity
  8
0
100
AcDbSpline
 62
7
  6
CONTINUOUS
 70
0
 71
3
 72
11
 73
7
 74
0
 42
0.0000001
 43
0.0000001
 44
0.0000000001
 40
0.0
 40
0.0
 40
0.0
 40
0.0
 40
0.2299433273
 40
0.4736562489
 40
0.7306722674
 40
1.0
 40
1.0
 40
1.0
 40
1.0
 10
43.857093937
 20
107.2627284597
 30
0.0
 10
43.7072314587
 20
107.9776011841
 30
0.0
 10
43.486249515
 20
109.4694611277
 30
0.0
 10
43.3825032042
 20
111.7914977199
 30
0.0
 10
43.497828717
 20
114.2379032265
 30
0.0
 10
43.7147139505
 20
115.8977499499
 30
0.0
 10
43.857093937
 20
116.7413350213
 30
0.0
  0
SPLINE
  5
3BC
100
AcDbEntity
  8
0
100
AcDbSpline
 62
7
  6
CONTINUOUS
 70
0
 71
3
 72
8
 73
4
 74
0
 42
0.0000001
 43
0.0000001
 44
0.0000000001
 40
0.0
 40
0.0
 40
0.0
 40
0.0
 40
1.0
 40
1.0
 40
1.0
 40
1.0
 10
50.5767513888
 20
95.9215379503
 30
0.0
 10
50.5643402188
 20
95.9287048123
 30
0.0
 10
50.5527731008
 20
95.9375469399
 30
0.0
 10
50.5425436663
 20
95.9475848542
 30
0.0
  0
SPLINE
  5
3BD
100
AcDbEntity
  8
0
100
AcDbSpline
 62
7
  6
CONTINUOUS
 70
0
 71
3
 72
9
 73
5
 74
0
 42
0.0000001
 43
0.0000001
 44
0.0000000001
 40
0.0
 40
0.0
 40
0.0
 40
0.0
 40
0.5114817926
 40
1.0
 40
1.0
 40
1.0
 40
1.0
 10
71.3422456691
 20
150.3243132409
 30
0.0
 10
71.9858341978
 20
150.3718804694
 30
0.0
 10
73.252502506
 20
150.3795766358
 30
0.0
 10
74.5064928976
 20
150.1913718876
 30
0.0
 10
75.1060355526
 20
150.0483293317
 30
0.0
  0
SPLINE
  5
3BE
100
AcDbEntity
  8
0
100
AcDbSpline
 62
7
  6
CONTINUOUS
 70
0
 71
3
 72
9
 73
5
 74
0
 42
0.0000001
 43
0.0000001
 44
0.0000000001
 40
0.0
 40
0.0
 40
0.0
 40
0.0
 40
0.2533174454
 40
1.0
 40
1.0
 40
1.0
 40
1.0
 10
50.6227014218
 20
135.9129541574
 30
0.0
 10
50.9162811741
 20
136.321992886
 30
0.0
 10
52.0993010405
 20
137.9192483899
 30
0.0
 10
53.3785801058
 20
139.4456277625
 30
0.0
 10
54.3864913053
 20
140.5349623291
 30
0.0
  0
SPLINE
  5
3BF
100
AcDbEntity
  8
0
100
AcDbSpline
 62
7
  6
CONTINUOUS
 70
0
 71
3
 72
9
 73
5
 74
0
 42
0.0000001
 43
0.0000001
 44
0.0000000001
 40
0.0
 40
0.0
 40
0.0
 40
0.0
 40
0.4755960726
 40
1.0
 40
1.0
 40
1.0
 40
1.0
 10
50.4731772876
 20
135.4932131997
 30
0.0
 10
50.4731772876
 20
135.5646416274
 30
0.0
 10
50.5055748251
 20
135.7147081215
 30
0.0
 10
50.576777985
 20
135.8489699621
 30
0.0
 10
50.6227014218
 20
135.9129541574
 30
0.0
  0
SPLINE
  5
3C0
100
AcDbEntity
  8
0
100
AcDbSpline
 62
7
  6
CONTINUOUS
 70
0
 71
3
 72
15
 73
11
 74
0
 42
0.0000001
 43
0.0000001
 44
0.0000000001
 40
0.0
 40
0.0
 40
0.0
 40
0.0
 40
0.1141462769
 40
0.2373347432
 40
0.3669750849
 40
0.4999983967
 40
0.6330219315
 40
0.7626629244
 40
0.8858524171
 40
1.0
 40
1.0
 40
1.0
 40
1.0
 10
47.1144340609
 20
128.190923705
 30
0.0
 10
47.3443504078
 20
128.3236651774
 30
0.0
 10
47.7985072956
 20
128.642062563
 30
0.0
 10
48.4234398811
 20
129.2266685967
 30
0.0
 10
48.9992770819
 20
129.9178156881
 30
0.0
 10
49.5044659242
 20
130.6893860925
 30
0.0
 10
49.9200677156
 20
131.5126810486
 30
0.0
 10
50.2306980673
 20
132.356949644
 30
0.0
 10
50.4245149068
 20
133.1904673558
 30
0.0
 10
50.4731772876
 20
133.7429827464
 30
0.0
 10
50.4731772876
 20
134.0084699172
 30
0.0
  0
SPLINE
  5
3C1
100
AcDbEntity
  8
0
100
AcDbSpline
 62
7
  6
CONTINUOUS
 70
0
 71
3
 72
10
 73
6
 74
0
 42
0.0000001
 43
0.0000001
 44
0.0000000001
 40
0.0
 40
0.0
 40
0.0
 40
0.0
 40
0.5104243185
 40
0.7674661931
 40
1.0
 40
1.0
 40
1.0
 40
1.0
 10
45.5862805351
 20
126.986567064
 30
0.0
 10
45.6044244552
 20
127.0940677067
 30
0.0
 10
45.6717258799
 20
127.2503764914
 30
0.0
 10
45.8061701831
 20
127.4169867978
 30
0.0
 10
45.8888546757
 20
127.4833393407
 30
0.0
 10
45.9318673451
 20
127.5081725688
 30
0.0
  0
ENDSEC
  0
SECTION
  2
OBJECTS
  0
DICTIONARY
  5
C
100
AcDbDictionary
280
0
281
1
  3
ACAD_GROUP
350
D
  3
ACAD_MLINESTYLE
350
17
  3
ACAD_LAYOUT
350
1A
  3
ACAD_PLOTSETTINGS
350
19
  3
ACAD_PLOTSTYLENAME
350
E
  0
DICTIONARY
  5
D
102
{ACAD_REACTORS
330
C
102
}
100
AcDbDictionary
280
0
281
1
  0
ACDBDICTIONARYWDFLT
  5
E
102
{ACAD_REACTORS
330
C
102
}
100
AcDbDictionary
281
1
  3
Normal
350
F
100
AcDbDictionaryWithDefault
340
F
  0
DICTIONARY
  5
17
102
{ACAD_REACTORS
330
C
102
}
100
AcDbDictionary
280
0
281
1
  3
Standard
350
18
  0
DICTIONARY
  5
19
102
{ACAD_REACTORS
330
C
102
}
100
AcDbDictionary
281
1
  0
DICTIONARY
  5
1A
102
{ACAD_REACTORS
330
C
102
}
100
AcDbDictionary
281
1
  3
Model
350
3C2
  3
Layout1
350
3C3
  0
ACDBPLACEHOLDER
  5
F
102
{ACAD_REACTORS
330
E
102
}
  0
MLINESTYLE
  5
18
102
{ACAD_REACTORS
330
17
102
}
100
AcDbMlineStyle
  2
STANDARD
 70
0
  3

 62
256
 51
90.0
 52
90.0
 71
2
 49
0.5
 62
256
  6
BYLAYER
 49
-0.5
 62
256
  6
BYLAYER
  0
LAYOUT
  5
3C2
102
{ACAD_REACTORS
330
1A
102
}
100
AcDbPlotSettings
  1

  2
none_device
  4

  6

 40
0.0
 41
0.0
 42
0.0
 43
0.0
 44
210.0
 45
297.0
 46
0.0
 47
0.0
 48
0.0
 49
0.0
140
0.0
141
0.0
142
1.0
143
1.0
 70
1024
 72
1
 73
0
 74
0
  7

 75
0
147
1.0
148
0.0
149
0.0
100
AcDbLayout
  1
Model
 70
0
 71
0
 10
0.0
 20
0.0
 11
210.0
 21
297.0
 12
0.0
 22
0.0
 32
0.0
 14
0.0
 24
0.0
 34
0.0
 15
0.0
 25
0.0
 35
0.0
146
0.0
 13
0.0
 23
0.0
 33
0.0
 16
1.0
 26
0.0
 36
0.0
 17
0.0
 27
1.0
 37
0.0
 76
0
330
210
345
0
346
0
  0
LAYOUT
  5
3C3
102
{ACAD_REACTORS
330
1A
102
}
100
AcDbPlotSettings
  1

  2
none_device
  4

  6

 40
0.0
 41
0.0
 42
0.0
 43
0.0
 44
210.0
 45
297.0
 46
0.0
 47
0.0
 48
0.0
 49
0.0
140
0.0
141
0.0
142
1.0
143
1.0
 70
0
 72
1
 73
0
 74
0
  7

 75
0
147
1.0
148
0.0
149
0.0
100
AcDbLayout
  1
Layout1
 70
0
 71
1
 10
0.0
 20
0.0
 11
210.0
 21
297.0
 12
0.0
 22
0.0
 32
0.0
 14
0.0
 24
0.0
 34
0.0
 15
0.0
 25
0.0
 35
0.0
146
0.0
 13
0.0
 23
0.0
 33
0.0
 16
1.0
 26
0.0
 36
0.0
 17
0.0
 27
1.0
 37
0.0
 76
0
330
211
345
0
346
0
  0
ENDSEC
  0
EOF
