999
DXF file: C:\Users\sesa63760\Dev\_Creo\CAD\MCADID0004185_3D-CAD\drw0001_1.dxf
999
Pro/ENGINEER 2019471 by Parametric Technology Corporation
  0
SECTION
  2
HEADER
  9
$ACADVER
  1
AC1024
  9
$DWGCODEPAGE
  3
ANSI_1252
  9
$EXTMAX
 10
565.2534275972
 20
799.4298476017
 30
0.0
  9
$EXTMIN
 10
0.0
 20
0.0
 30
0.0
  9
$LIMMIN
 10
0.0
 20
0.0
  9
$LIMMAX
 10
565.2534275972
 20
799.4298476017
  9
$VIEWCTR
 10
282.6267137986
 20
399.7149238009
  9
$VIEWSIZE
 40
799.4298476017
  9
$CLAYER
  8
0
  9
$LTSCALE
 40
52.1109826585
  9
$CELTYPE
  6
BYLAYER
  9
$DIMSCALE
 40
1.0
  9
$DIMASZ
 40
6.7292074714
  9
$DIMEXO
 40
1.0
  9
$DIMDLI
 40
36.003951655
  9
$DIMEXE
 40
1.0
  9
$DIMCEN
 40
8.5272517078
  9
$DIMLFAC
 40
1.0
  9
$DIMBLK
  1
_FILLED
  9
$DIMALT
 70
0
  9
$DIMALTF
 40
0.0393700787
  9
$DIMTXT
 40
9.42089046
  9
$DIMTOL
 70
1
  9
$DIMLIM
 70
0
  9
$DIMTFAC
 40
1.0
  9
$DIMTP
 40
0.01
  9
$DIMTM
 40
0.01
  9
$DIMGAP
 40
0.625
  9
$DIMDSEP
 70
46
  9
$AUNITS
 70
0
  9
$PDMODE
 70
3
  9
$PDSIZE
 40
0.3125
  9
$HANDSEED
  5
53A
  9
$TILEMODE
 70
1
  9
$MEASUREMENT
 70
1
  9
$INSUNITS
 70
4
  0
ENDSEC
  0
SECTION
  2
CLASSES
  0
CLASS
  1
ACDBDICTIONARYWDFLT
  2
AcDbDictionaryWithDefault
  3
AutoCAD 2000
 90
0
 91
1
280
0
281
0
  0
CLASS
  1
ACDBPLACEHOLDER
  2
AcDbPlaceHolder
  3
AutoCAD 2000
 90
0
 91
1
280
0
281
0
  0
CLASS
  1
LAYOUT
  2
AcDbLayout
  3
AutoCAD 2000
 90
0
 91
0
280
0
281
0
  0
ENDSEC
  0
SECTION
  2
TABLES
  0
TABLE
  2
VPORT
  5
8
100
AcDbSymbolTable
 70
2
  0
VPORT
  5
1F4
100
AcDbSymbolTableRecord
100
AcDbViewportTableRecord
  2
*ACTIVE
 70
0
 10
0.0
 20
0.0
 11
1.0
 21
1.0
 12
282.6267137986
 22
399.7149238009
 13
0.0
 23
0.0
 14
1.0
 24
1.0
 15
0.0
 25
0.0
 16
0.0
 26
0.0
 36
1.0
 17
0.0
 27
0.0
 37
0.0
 40
799.4298476017
 41
0.7070707071
 42
50.0
 43
0.0
 44
0.0
 50
0.0
 51
0.0
 71
0
 72
100
 73
1
 74
1
 75
0
 76
0
 77
0
 78
0
  0
ENDTAB
  0
TABLE
  2
LTYPE
  5
5
100
AcDbSymbolTable
 70
6
  0
LTYPE
  5
14
100
AcDbSymbolTableRecord
100
AcDbLinetypeTableRecord
  2
BYBLOCK
 70
0
  3

 72
65
 73
0
 40
0.0
  0
LTYPE
  5
15
100
AcDbSymbolTableRecord
100
AcDbLinetypeTableRecord
  2
BYLAYER
 70
0
  3

 72
65
 73
0
 40
0.0
  0
LTYPE
  5
16
100
AcDbSymbolTableRecord
100
AcDbLinetypeTableRecord
  2
CONTINUOUS
 70
64
  3
Solid line
 72
65
 73
0
 40
0.0
  0
LTYPE
  5
1F5
100
AcDbSymbolTableRecord
100
AcDbLinetypeTableRecord
  2
CENTER
 70
64
  3
____ _ ____ _ ____ _ ____ _ ____ _ ____ _ ____
 72
65
 73
4
 40
0.6
 49
0.375
 74
0
 49
-0.075
 74
0
 49
0.075
 74
0
 49
-0.075
 74
0
  0
LTYPE
  5
1F6
100
AcDbSymbolTableRecord
100
AcDbLinetypeTableRecord
  2
HIDDEN
 70
64
  3
- - - - - - - - - - - - - - - - - - - -
 72
65
 73
2
 40
0.2
 49
0.1
 74
0
 49
-0.1
 74
0
  0
LTYPE
  5
1F7
100
AcDbSymbolTableRecord
100
AcDbLinetypeTableRecord
  2
PHANTOM
 70
64
  3
_____ _ _ _____ _ _ _____ _ _ _____
 72
65
 73
6
 40
0.8
 49
0.45
 74
0
 49
-0.05
 74
0
 49
0.1
 74
0
 49
-0.05
 74
0
 49
0.1
 74
0
 49
-0.05
 74
0
  0
LTYPE
  5
1F8
100
AcDbSymbolTableRecord
100
AcDbLinetypeTableRecord
  2
DOT
 70
64
  3
. . . . . . . . . . . . . . . . . . . .
 72
65
 73
2
 40
0.2
 49
0.1
 74
0
 49
-0.1
 74
0
  0
LTYPE
  5
1F9
100
AcDbSymbolTableRecord
100
AcDbLinetypeTableRecord
  2
DASHED
 70
64
  3
- - - - - - - - - - - - - - - - - - - -
 72
65
 73
2
 40
0.2
 49
0.1
 74
0
 49
-0.1
 74
0
  0
ENDTAB
  0
TABLE
  2
LAYER
  5
2
100
AcDbSymbolTable
 70
36
  0
LAYER
  5
10
100
AcDbSymbolTableRecord
100
AcDbLayerTableRecord
  2
0
 70
0
 62
7
  6
CONTINUOUS
370
-3
390
F
  0
LAYER
  5
1FA
100
AcDbSymbolTableRecord
100
AcDbLayerTableRecord
  2
DEFAULT_1
 70
0
 62
7
  6
CENTER
370
-3
390
F
  0
LAYER
  5
1FB
100
AcDbSymbolTableRecord
100
AcDbLayerTableRecord
  2
DEFAULT_2
 70
0
 62
7
  6
HIDDEN
370
-3
390
F
  0
LAYER
  5
1FC
100
AcDbSymbolTableRecord
100
AcDbLayerTableRecord
  2
DEFAULT_3
 70
0
 62
7
  6
PHANTOM
370
-3
390
F
  0
LAYER
  5
1FD
100
AcDbSymbolTableRecord
100
AcDbLayerTableRecord
  2
00_COMPONENTS
 70
0
 62
7
  6
CONTINUOUS
370
-3
390
F
  0
LAYER
  5
1FE
100
AcDbSymbolTableRecord
100
AcDbLayerTableRecord
  2
01_1_DEFAULT_DATUMS
 70
0
 62
7
  6
CONTINUOUS
370
-3
390
F
  0
LAYER
  5
1FF
100
AcDbSymbolTableRecord
100
AcDbLayerTableRecord
  2
01_PLANES
 70
0
 62
7
  6
CONTINUOUS
370
-3
390
F
  0
LAYER
  5
200
100
AcDbSymbolTableRecord
100
AcDbLayerTableRecord
  2
02_COORD_SYS
 70
0
 62
7
  6
CONTINUOUS
370
-3
390
F
  0
LAYER
  5
201
100
AcDbSymbolTableRecord
100
AcDbLayerTableRecord
  2
03_AXES
 70
0
 62
7
  6
CONTINUOUS
370
-3
390
F
  0
LAYER
  5
202
100
AcDbSymbolTableRecord
100
AcDbLayerTableRecord
  2
04_POINTS
 70
0
 62
7
  6
CONTINUOUS
370
-3
390
F
  0
LAYER
  5
203
100
AcDbSymbolTableRecord
100
AcDbLayerTableRecord
  2
05_CURVES
 70
0
 62
7
  6
CONTINUOUS
370
-3
390
F
  0
LAYER
  5
204
100
AcDbSymbolTableRecord
100
AcDbLayerTableRecord
  2
06_SURFS
 70
0
 62
7
  6
CONTINUOUS
370
-3
390
F
  0
LAYER
  5
205
100
AcDbSymbolTableRecord
100
AcDbLayerTableRecord
  2
07_COSMETICS
 70
0
 62
7
  6
CONTINUOUS
370
-3
390
F
  0
LAYER
  5
206
100
AcDbSymbolTableRecord
100
AcDbLayerTableRecord
  2
10_NOTES
 70
0
 62
7
  6
CONTINUOUS
370
-3
390
F
  0
LAYER
  5
207
100
AcDbSymbolTableRecord
100
AcDbLayerTableRecord
  2
11_NOTES_PUB
 70
0
 62
7
  6
CONTINUOUS
370
-3
390
F
  0
LAYER
  5
208
100
AcDbSymbolTableRecord
100
AcDbLayerTableRecord
  2
13_REF_GTOL
 70
0
 62
7
  6
CONTINUOUS
370
-3
390
F
  0
LAYER
  5
209
100
AcDbSymbolTableRecord
100
AcDbLayerTableRecord
  2
16_MISC
 70
0
 62
7
  6
CONTINUOUS
370
-3
390
F
  0
LAYER
  5
20A
100
AcDbSymbolTableRecord
100
AcDbLayerTableRecord
  2
17_NO_PRINT
 70
0
 62
7
  6
CONTINUOUS
370
-3
390
F
  0
LAYER
  5
20B
100
AcDbSymbolTableRecord
100
AcDbLayerTableRecord
  2
18_DATUM_CAMS_JOINTS
 70
0
 62
7
  6
CONTINUOUS
370
-3
390
F
  0
LAYER
  5
20C
100
AcDbSymbolTableRecord
100
AcDbLayerTableRecord
  2
19_DATUM_FUNCTIONAL
 70
0
 62
7
  6
CONTINUOUS
370
-3
390
F
  0
LAYER
  5
20D
100
AcDbSymbolTableRecord
100
AcDbLayerTableRecord
  2
20_DATUM_KINEMATIC_SCHEME
 70
0
 62
7
  6
CONTINUOUS
370
-3
390
F
  0
ENDTAB
  0
TABLE
  2
STYLE
  5
3
100
AcDbSymbolTable
 70
1
  0
STYLE
  5
11
100
AcDbSymbolTableRecord
100
AcDbTextStyleTableRecord
  2
STANDARD
 70
0
 40
0.0
 41
1.0
 50
0.0
 71
0
 42
0.2
  3
ARIAL.TTF
  4

  0
STYLE
  5
20E
100
AcDbSymbolTableRecord
100
AcDbTextStyleTableRecord
  2
TEXTSTYLE_1
 70
0
 40
0.0
 41
0.8
 50
0.0
 71
0
 42
0.2
  3
gdt
  4

  0
ENDTAB
  0
TABLE
  2
VIEW
  5
6
100
AcDbSymbolTable
 70
0
  0
ENDTAB
  0
TABLE
  2
UCS
  5
7
100
AcDbSymbolTable
 70
0
  0
ENDTAB
  0
TABLE
  2
APPID
  5
9
100
AcDbSymbolTable
 70
1
  0
APPID
  5
20F
100
AcDbSymbolTableRecord
100
AcDbRegAppTableRecord
  2
ACAD
 70
0
  0
ENDTAB
  0
TABLE
  2
BLOCK_RECORD
  5
1
100
AcDbSymbolTable
 70
0
  0
BLOCK_RECORD
  5
210
100
AcDbSymbolTableRecord
100
AcDbBlockTableRecord
  2
*Model_Space
  0
BLOCK_RECORD
  5
211
100
AcDbSymbolTableRecord
100
AcDbBlockTableRecord
  2
*Paper_Space
  0
BLOCK_RECORD
  5
212
100
AcDbSymbolTableRecord
100
AcDbBlockTableRecord
  2
_FILLED
  0
ENDTAB
  0
TABLE
  2
DIMSTYLE
  5
A
100
AcDbSymbolTable
 70
1
100
AcDbDimStyleTable
 71
0
  0
DIMSTYLE
105
213
100
AcDbSymbolTableRecord
100
AcDbDimStyleTableRecord
  2
STANDARD
 70
0
  3

  4

 40
1.0
 41
6.7292074714
 42
1.0
 43
0.38
 44
1.0
 45
0.0
 46
0.0
 47
0.01
 48
0.01
140
9.42089046
141
0.09
142
0.0
143
25.4
144
1.0
145
0.0
146
1.0
147
0.625
 71
1
 72
0
 73
0
 74
0
 75
0
 76
0
 77
1
 78
8
 79
2
170
0
171
1
172
0
173
0
174
0
175
0
176
0
177
0
178
0
270
2
179
2
271
2
272
2
273
2
274
2
275
0
280
0
281
0
282
0
283
1
284
8
285
0
286
0
287
3
288
0
340
11
278
46
341
212
342
212
343
212
344
212
  0
ENDTAB
  0
ENDSEC
  0
SECTION
  2
BLOCKS
  0
BLOCK
  5
20
100
AcDbEntity
  8
0
100
AcDbBlockBegin
  2
*Model_Space
 70
0
 10
0.0
 20
0.0
 30
0.0
  3
*Model_Space
  1

  0
ENDBLK
  5
21
100
AcDbEntity
  8
0
100
AcDbBlockEnd
  0
BLOCK
  5
1C
100
AcDbEntity
  8
0
100
AcDbBlockBegin
  2
*Paper_Space
 70
0
 10
0.0
 20
0.0
 30
0.0
  3
*Paper_Space
  1

  0
ENDBLK
  5
1D
100
AcDbEntity
  8
0
100
AcDbBlockEnd
  0
BLOCK
  5
214
100
AcDbEntity
  8
0
100
AcDbBlockBegin
  2
_FILLED
 70
64
 10
0.0
 20
0.0
  3
_FILLED
  1

  0
SOLID
  5
215
100
AcDbEntity
  8
0
  6
BYBLOCK
 62
0
100
AcDbTrace
 10
0.0
 20
0.0
 11
-1.0
 21
0.25
 12
-1.0
 22
-0.25
 13
-1.0
 23
-0.25
  0
ENDBLK
  5
216
100
AcDbEntity
  8
0
  6
BYBLOCK
 62
0
100
AcDbBlockEnd
  0
ENDSEC
  0
SECTION
  2
ENTITIES
  0
LINE
  5
217
100
AcDbEntity
  8
0
100
AcDbLine
 62
7
  6
BYLAYER
 10
273.6394900335
 20
734.8544629657
 11
271.4828233296
 21
733.6093182962
  0
LINE
  5
218
100
AcDbEntity
  8
0
100
AcDbLine
 62
7
  6
BYLAYER
 10
279.1548999632
 20
738.0387673657
 11
281.3115666667
 21
739.283912035
  0
LINE
  5
219
100
AcDbEntity
  8
0
100
AcDbLine
 62
7
  6
BYLAYER
 10
281.3469330457
 20
737.7530029167
 11
280.2155669061
 21
737.0998122705
  0
LINE
  5
21A
100
AcDbEntity
  8
0
100
AcDbLine
 62
7
  6
BYLAYER
 10
274.9829985108
 20
734.0788055319
 11
274.1344739061
 21
733.5889125472
  0
LINE
  5
21B
100
AcDbEntity
  8
0
100
AcDbLine
 62
7
  6
BYLAYER
 10
271.2485111097
 20
731.0245316291
 11
270.6450322855
 21
730.6761150472
  0
LINE
  5
21C
100
AcDbEntity
  8
0
100
AcDbLine
 62
7
  6
BYLAYER
 10
283.9986155697
 20
738.3857639307
 11
284.0379516283
 21
738.4084744792
  0
LINE
  5
21D
100
AcDbEntity
  8
0
100
AcDbLine
 62
7
  6
BYLAYER
 10
269.8893707318
 20
730.1678460718
 11
269.9401701269
 21
730.1971749412
  0
LINE
  5
21E
100
AcDbEntity
  8
0
100
AcDbLine
 62
7
  6
BYLAYER
 10
285.4456551505
 20
739.149217457
 11
285.4964545456
 21
739.1785463263
  0
LINE
  5
21F
100
AcDbEntity
  8
0
100
AcDbLine
 62
7
  6
BYLAYER
 10
275.6901153014
 20
732.6907828873
 11
282.902574441
 21
736.8548732568
  0
LINE
  5
220
100
AcDbEntity
  8
0
100
AcDbLine
 62
7
  6
BYLAYER
 10
269.9107160575
 20
729.2153537267
 11
270.2535352861
 21
729.4132793191
  0
LINE
  5
221
100
AcDbEntity
  8
0
100
AcDbLine
 62
7
  6
BYLAYER
 10
271.2471397968
 20
729.9869337266
 11
271.5899590254
 21
730.184859319
  0
LINE
  5
222
100
AcDbEntity
  8
0
100
AcDbLine
 62
7
  6
BYLAYER
 10
285.4670004762
 20
738.1967251118
 11
285.8098197048
 21
738.3946507043
  0
LINE
  5
223
100
AcDbEntity
  8
0
100
AcDbLine
 62
7
  6
BYLAYER
 10
286.8034242155
 20
738.9683051117
 11
287.1462434441
 21
739.1662307042
  0
LINE
  5
224
100
AcDbEntity
  8
0
100
AcDbLine
 62
7
  6
BYLAYER
 10
287.5505981248
 20
738.9327817018
 11
287.2077788962
 21
738.7348561093
  0
LINE
  5
225
100
AcDbEntity
  8
0
100
AcDbLine
 62
7
  6
BYLAYER
 10
286.2141743855
 20
738.1612017018
 11
285.8713551569
 21
737.9632761094
  0
LINE
  5
226
100
AcDbEntity
  8
0
100
AcDbLine
 62
7
  6
BYLAYER
 10
271.9943137061
 20
729.9514103166
 11
271.6514944775
 21
729.7534847241
  0
LINE
  5
227
100
AcDbEntity
  8
0
100
AcDbLine
 62
7
  6
BYLAYER
 10
270.6578899668
 20
729.1798303167
 11
270.3150707382
 21
728.9819047242
  0
LINE
  5
228
100
AcDbEntity
  8
0
100
AcDbLine
 62
7
  6
BYLAYER
 10
287.085741282
 20
738.3173187866
 11
286.8093847667
 21
738.1577652305
  0
LINE
  5
229
100
AcDbEntity
  8
0
100
AcDbLine
 62
7
  6
BYLAYER
 10
271.5294568633
 20
729.3359474014
 11
271.253100348
 21
729.1763938453
  0
LINE
  5
22A
100
AcDbEntity
  8
0
100
AcDbLine
 62
7
  6
BYLAYER
 10
287.5292663588
 20
738.0049284296
 11
287.4784669637
 21
737.9755995602
  0
LINE
  5
22B
100
AcDbEntity
  8
0
100
AcDbLine
 62
7
  6
BYLAYER
 10
271.9729819401
 20
729.0235570444
 11
271.922182545
 21
728.994228175
  0
LINE
  5
22C
100
AcDbEntity
  8
0
100
AcDbLine
 62
7
  6
BYLAYER
 10
271.2173452427
 20
728.1080469503
 11
273.2506214885
 21
729.2819525309
  0
LINE
  5
22D
100
AcDbEntity
  8
0
100
AcDbLine
 62
7
  6
BYLAYER
 10
288.8069059072
 20
738.2633239161
 11
290.840182153
 21
739.4372294966
  0
LINE
  5
22E
100
AcDbEntity
  8
0
100
AcDbLine
 62
7
  6
BYLAYER
 10
301.6743937198
 20
733.6899489991
 11
301.6829951008
 21
733.6949149791
  0
LINE
  5
22F
100
AcDbEntity
  8
0
100
AcDbLine
 62
7
  6
BYLAYER
 10
301.6743984301
 20
733.0367610724
 11
299.767106647
 21
731.935592221
  0
LINE
  5
230
100
AcDbEntity
  8
0
100
AcDbLine
 62
7
  6
BYLAYER
 10
284.2108222283
 20
722.9542208358
 11
282.2958718919
 21
721.8486303431
  0
LINE
  5
231
100
AcDbEntity
  8
0
100
AcDbLine
 62
7
  6
BYLAYER
 10
282.2958718919
 20
719.3991230918
 11
284.1305347253
 21
720.4583598497
  0
LINE
  5
232
100
AcDbEntity
  8
0
100
AcDbLine
 62
7
  6
BYLAYER
 10
285.445784685
 20
721.1865494723
 11
285.4965840802
 21
721.2158783417
  0
LINE
  5
233
100
AcDbEntity
  8
0
100
AcDbLine
 62
7
  6
BYLAYER
 10
301.0020691037
 20
730.1466103653
 11
301.0528684989
 21
730.1759392347
  0
LINE
  5
234
100
AcDbEntity
  8
0
100
AcDbLine
 62
7
  6
BYLAYER
 10
285.4671300107
 20
720.2340571272
 11
285.8099492393
 21
720.4319827197
  0
LINE
  5
235
100
AcDbEntity
  8
0
100
AcDbLine
 62
7
  6
BYLAYER
 10
286.80355375
 20
721.0056371271
 11
287.1463729786
 21
721.2035627196
  0
LINE
  5
236
100
AcDbEntity
  8
0
100
AcDbLine
 62
7
  6
BYLAYER
 10
301.0234144294
 20
729.1941180202
 11
301.366233658
 21
729.3920436126
  0
LINE
  5
237
100
AcDbEntity
  8
0
100
AcDbLine
 62
7
  6
BYLAYER
 10
302.3598381687
 20
729.9656980201
 11
302.7026573973
 21
730.1636236125
  0
LINE
  5
238
100
AcDbEntity
  8
0
100
AcDbLine
 62
7
  6
BYLAYER
 10
287.5507276593
 20
720.9701137171
 11
287.2079084307
 21
720.7721881247
  0
LINE
  5
239
100
AcDbEntity
  8
0
100
AcDbLine
 62
7
  6
BYLAYER
 10
286.21430392
 20
720.1985337172
 11
285.8714846914
 21
720.0006081248
  0
LINE
  5
23A
100
AcDbEntity
  8
0
100
AcDbLine
 62
7
  6
BYLAYER
 10
303.107012078
 20
729.9301746101
 11
302.7641928494
 21
729.7322490176
  0
LINE
  5
23B
100
AcDbEntity
  8
0
100
AcDbLine
 62
7
  6
BYLAYER
 10
301.7705883387
 20
729.1585946102
 11
301.4277691101
 21
728.9606690177
  0
LINE
  5
23C
100
AcDbEntity
  8
0
100
AcDbLine
 62
7
  6
BYLAYER
 10
287.0858708165
 20
720.3546508019
 11
286.8095143013
 21
720.1950972459
  0
LINE
  5
23D
100
AcDbEntity
  8
0
100
AcDbLine
 62
7
  6
BYLAYER
 10
302.6421552352
 20
729.3147116948
 11
302.36579872
 21
729.1551581388
  0
LINE
  5
23E
100
AcDbEntity
  8
0
100
AcDbLine
 62
7
  6
BYLAYER
 10
287.5293958934
 20
720.0422604449
 11
287.4785964982
 21
720.0129315756
  0
LINE
  5
23F
100
AcDbEntity
  8
0
100
AcDbLine
 62
7
  6
BYLAYER
 10
303.0856803121
 20
729.0023213379
 11
303.034880917
 21
728.9729924685
  0
LINE
  5
240
100
AcDbEntity
  8
0
100
AcDbLine
 62
7
  6
BYLAYER
 10
302.7369932933
 20
726.9142160445
 11
292.9082499561
 21
721.2396223057
  0
LINE
  5
241
100
AcDbEntity
  8
0
100
AcDbLine
 62
7
  6
BYLAYER
 10
304.2027443224
 20
725.3109554929
 11
302.7369932933
 21
724.4647087932
  0
LINE
  5
242
100
AcDbEntity
  8
0
100
AcDbLine
 62
7
  6
BYLAYER
 10
291.4424989271
 20
717.9438683546
 11
292.9082499561
 21
718.7901150543
  0
LINE
  5
243
100
AcDbEntity
  8
0
100
AcDbLine
 62
7
  6
BYLAYER
 10
304.2027443224
 20
722.8614482415
 11
291.5792992787
 21
715.5733423516
  0
LINE
  5
244
100
AcDbEntity
  8
0
100
AcDbLine
 62
7
  6
BYLAYER
 10
291.6905986552
 20
715.3698161118
 11
304.4184677251
 21
722.7182108815
  0
LINE
  5
245
100
AcDbEntity
  8
0
100
AcDbLine
 62
7
  6
BYLAYER
 10
277.1613144263
 20
84.2513832044
 11
277.263653148
 21
84.1949167662
  0
LINE
  5
246
100
AcDbEntity
  8
0
100
AcDbLine
 62
7
  6
BYLAYER
 10
277.1635112988
 20
84.2527091391
 11
277.265465965
 21
84.1960129125
  0
LINE
  5
247
100
AcDbEntity
  8
0
100
AcDbLine
 62
7
  6
BYLAYER
 10
291.7768791061
 20
70.0757863859
 11
290.6419375804
 21
70.7310303576
  0
LINE
  5
248
100
AcDbEntity
  8
0
100
AcDbLine
 62
7
  6
BYLAYER
 10
291.6905986552
 20
80.5391867936
 11
291.5779920311
 21
80.6041987875
  0
LINE
  5
249
100
AcDbEntity
  8
0
100
AcDbLine
 62
7
  6
BYLAYER
 10
270.9830589501
 20
78.8942038713
 11
270.9034843152
 21
78.9468245918
  0
LINE
  5
24A
100
AcDbEntity
  8
0
100
AcDbLine
 62
7
  6
BYLAYER
 10
270.9830330228
 20
78.8941908123
 11
270.9034633739
 21
78.946814028
  0
LINE
  5
24B
100
AcDbEntity
  8
0
100
AcDbLine
 62
7
  6
BYLAYER
 10
270.129705912
 20
725.995539645
 11
270.1054809444
 21
725.9113918286
  0
LINE
  5
24C
100
AcDbEntity
  8
0
100
AcDbLine
 62
7
  6
BYLAYER
 10
285.8253099536
 20
715.0564508465
 11
285.8150796805
 21
715.0042107513
  0
LINE
  5
24D
100
AcDbEntity
  8
0
100
AcDbLine
 62
7
  6
BYLAYER
 10
267.7091248188
 20
90.9543154083
 11
267.7074134168
 21
91.0132052941
  0
LINE
  5
24E
100
AcDbEntity
  8
0
100
AcDbLine
 62
7
  6
BYLAYER
 10
270.9835278412
 20
727.7973785383
 11
270.9831332422
 21
727.781454451
  0
LINE
  5
24F
100
AcDbEntity
  8
0
100
AcDbLine
 62
7
  6
BYLAYER
 10
285.8264895185
 20
717.4861409444
 11
285.8253829552
 21
717.4690184101
  0
LINE
  5
250
100
AcDbEntity
  8
0
100
AcDbLine
 62
7
  6
BYLAYER
 10
291.566656772
 20
717.5816540608
 11
291.5792657954
 21
717.6684495425
  0
LINE
  5
251
100
AcDbEntity
  8
0
100
AcDbLine
 62
7
  6
BYLAYER
 10
267.7074134168
 20
725.8438346123
 11
267.7091248188
 21
725.7849447265
  0
LINE
  5
252
100
AcDbEntity
  8
0
100
AcDbLine
 62
7
  6
BYLAYER
 10
271.179212455
 20
78.7641471839
 11
271.1801953226
 21
76.3139870159
  0
LINE
  5
253
100
AcDbEntity
  8
0
100
AcDbLine
 62
7
  6
BYLAYER
 10
267.698363031
 20
90.9543154083
 11
267.698363031
 21
82.0268144601
  0
LINE
  5
254
100
AcDbEntity
  8
0
100
AcDbLine
 62
7
  6
BYLAYER
 10
267.705482918
 20
725.8606604835
 11
267.705482918
 21
728.3101677349
  0
LINE
  5
255
100
AcDbEntity
  8
0
100
AcDbLine
 62
7
  6
BYLAYER
 10
267.7074045
 20
91.0132052939
 11
267.7074045
 21
725.8438346122
  0
LINE
  5
256
100
AcDbEntity
  8
0
100
AcDbLine
 62
7
  6
BYLAYER
 10
267.8713494371
 20
90.4460772442
 11
267.8713494371
 21
727.7262138139
  0
LINE
  5
257
100
AcDbEntity
  8
0
100
AcDbLine
 62
7
  6
BYLAYER
 10
267.9630115137
 20
90.2930389818
 11
267.9630115137
 21
81.3115123933
  0
LINE
  5
258
100
AcDbEntity
  8
0
100
AcDbLine
 62
7
  6
BYLAYER
 10
267.9630115137
 20
725.1268238396
 11
267.9630115137
 21
727.5763310909
  0
LINE
  5
259
100
AcDbEntity
  8
0
100
AcDbLine
 62
7
  6
BYLAYER
 10
268.4525148817
 20
728.2225446598
 11
268.4525148817
 21
728.9029633407
  0
LINE
  5
25A
100
AcDbEntity
  8
0
100
AcDbLine
 62
7
  6
BYLAYER
 10
269.2400849301
 20
89.0612834422
 11
269.2400849301
 21
80.0797568538
  0
LINE
  5
25B
100
AcDbEntity
  8
0
100
AcDbLine
 62
7
  6
BYLAYER
 10
269.24008493
 20
723.8950683
 11
269.24008493
 21
726.3445755514
  0
LINE
  5
25C
100
AcDbEntity
  8
0
100
AcDbLine
 62
7
  6
BYLAYER
 10
269.29564277
 20
723.8518575851
 11
269.29564277
 21
89.0212282669
  0
LINE
  5
25D
100
AcDbEntity
  8
0
100
AcDbLine
 62
7
  6
BYLAYER
 10
269.5603895737
 20
723.7988594864
 11
269.5603895737
 21
88.9682301682
  0
LINE
  5
25E
100
AcDbEntity
  8
0
100
AcDbLine
 62
7
  6
BYLAYER
 10
269.6174683197
 20
726.2528441366
 11
269.6174683197
 21
723.8033368852
  0
LINE
  5
25F
100
AcDbEntity
  8
0
100
AcDbLine
 62
7
  6
BYLAYER
 10
269.6174683197
 20
88.9695520274
 11
269.6174683197
 21
79.988025439
  0
LINE
  5
260
100
AcDbEntity
  8
0
100
AcDbLine
 62
7
  6
BYLAYER
 10
269.8893707318
 20
729.9637248447
 11
269.8893707318
 21
730.1678460718
  0
LINE
  5
261
100
AcDbEntity
  8
0
100
AcDbLine
 62
7
  6
BYLAYER
 10
269.9107160575
 20
729.0112324996
 11
269.9107160575
 21
729.2153537267
  0
LINE
  5
262
100
AcDbEntity
  8
0
100
AcDbLine
 62
7
  6
BYLAYER
 10
269.9401701269
 20
730.1971749412
 11
269.9401701269
 21
729.9343973136
  0
LINE
  5
263
100
AcDbEntity
  8
0
100
AcDbLine
 62
7
  6
BYLAYER
 10
270.0591143096
 20
88.5215008057
 11
270.0591143096
 21
723.352130124
  0
LINE
  5
264
100
AcDbEntity
  8
0
100
AcDbLine
 62
7
  6
BYLAYER
 10
270.0839188688
 20
88.445520009
 11
270.0839188688
 21
79.5717750527
  0
LINE
  5
265
100
AcDbEntity
  8
0
100
AcDbLine
 62
7
  6
BYLAYER
 10
270.0839188688
 20
723.387086499
 11
270.0839188688
 21
725.8365937503
  0
LINE
  5
266
100
AcDbEntity
  8
0
100
AcDbLine
 62
7
  6
BYLAYER
 10
270.1197204433
 20
723.2761493272
 11
270.1197204433
 21
88.445520009
  0
LINE
  5
267
100
AcDbEntity
  8
0
100
AcDbLine
 62
7
  6
BYLAYER
 10
270.1845052417
 20
725.6834604006
 11
270.1845052417
 21
723.2339531492
  0
LINE
  5
268
100
AcDbEntity
  8
0
100
AcDbLine
 62
7
  6
BYLAYER
 10
270.1845052417
 20
79.4186417029
 11
270.1845052417
 21
88.4001682914
  0
LINE
  5
269
100
AcDbEntity
  8
0
100
AcDbLine
 62
7
  6
BYLAYER
 10
270.2535352857
 20
729.4132793189
 11
270.2535352857
 21
728.9566340058
  0
LINE
  5
26A
100
AcDbEntity
  8
0
100
AcDbLine
 62
7
  6
BYLAYER
 10
270.2937235175
 20
729.7232417309
 11
270.2937235175
 21
730.197175791
  0
LINE
  5
26B
100
AcDbEntity
  8
0
100
AcDbLine
 62
7
  6
BYLAYER
 10
270.3755729003
 20
729.0168354553
 11
270.3755729003
 21
729.5833806348
  0
LINE
  5
26C
100
AcDbEntity
  8
0
100
AcDbLine
 62
7
  6
BYLAYER
 10
270.6578841462
 20
729.9869323104
 11
270.6578841462
 21
729.1798303167
  0
LINE
  5
26D
100
AcDbEntity
  8
0
100
AcDbLine
 62
7
  6
BYLAYER
 10
270.9830330228
 20
76.6176211463
 11
270.9830330228
 21
78.8941908123
  0
LINE
  5
26E
100
AcDbEntity
  8
0
100
AcDbLine
 62
7
  6
BYLAYER
 10
270.9830330228
 20
725.3319470953
 11
270.9830330228
 21
727.7814543467
  0
LINE
  5
26F
100
AcDbEntity
  8
0
100
AcDbLine
 62
7
  6
BYLAYER
 10
271.2471397971
 20
729.1798317329
 11
271.2471397971
 21
729.9869337268
  0
LINE
  5
270
100
AcDbEntity
  8
0
100
AcDbLine
 62
7
  6
BYLAYER
 10
271.2485111097
 20
733.2827237696
 11
271.2485111097
 21
730.8332165182
  0
LINE
  5
271
100
AcDbEntity
  8
0
100
AcDbLine
 62
7
  6
BYLAYER
 10
271.2488120889
 20
727.4322072592
 11
271.2488120889
 21
722.5331927564
  0
LINE
  5
272
100
AcDbEntity
  8
0
100
AcDbLine
 62
7
  6
BYLAYER
 10
271.2488120099
 20
87.6994079505
 11
271.2488120099
 21
76.2683741107
  0
LINE
  5
273
100
AcDbEntity
  8
0
100
AcDbLine
 62
7
  6
BYLAYER
 10
271.4828280399
 20
730.6321014751
 11
271.4828280399
 21
732.9561303694
  0
LINE
  5
274
100
AcDbEntity
  8
0
100
AcDbLine
 62
7
  6
BYLAYER
 10
271.5294568633
 20
729.0168429464
 11
271.5294568633
 21
729.5833834084
  0
LINE
  5
275
100
AcDbEntity
  8
0
100
AcDbLine
 62
7
  6
BYLAYER
 10
271.5899590254
 20
730.184859319
 11
271.5899590254
 21
729.707184404
  0
LINE
  5
276
100
AcDbEntity
  8
0
100
AcDbLine
 62
7
  6
BYLAYER
 10
271.6514969311
 20
728.9638555761
 11
271.6514969311
 21
729.4132826792
  0
LINE
  5
277
100
AcDbEntity
  8
0
100
AcDbLine
 62
7
  6
BYLAYER
 10
271.9435124159
 20
729.9220803531
 11
271.9435124159
 21
730.1848601689
  0
LINE
  5
278
100
AcDbEntity
  8
0
100
AcDbLine
 62
7
  6
BYLAYER
 10
271.9729804681
 20
729.2276782715
 11
271.9729804681
 21
729.0235570444
  0
LINE
  5
279
100
AcDbEntity
  8
0
100
AcDbLine
 62
7
  6
BYLAYER
 10
271.9943122341
 20
730.1555315437
 11
271.9943122341
 21
729.9514103166
  0
LINE
  5
27A
100
AcDbEntity
  8
0
100
AcDbLine
 62
7
  6
BYLAYER
 10
273.2506023527
 20
731.9355284832
 11
273.2506023527
 21
729.6153796003
  0
LINE
  5
27B
100
AcDbEntity
  8
0
100
AcDbLine
 62
7
  6
BYLAYER
 10
274.1344739061
 20
733.2623185839
 11
274.1344739061
 21
733.5889125472
  0
LINE
  5
27C
100
AcDbEntity
  8
0
100
AcDbLine
 62
7
  6
BYLAYER
 10
274.9829985108
 20
734.0788055319
 11
274.9829985108
 21
732.7724351174
  0
LINE
  5
27D
100
AcDbEntity
  8
0
100
AcDbLine
 62
7
  6
BYLAYER
 10
275.1001546207
 20
732.704796536
 11
275.1001546207
 21
734.2421027952
  0
LINE
  5
27E
100
AcDbEntity
  8
0
100
AcDbLine
 62
7
  6
BYLAYER
 10
279.0377438533
 20
734.623525596
 11
279.0377438533
 21
737.8754701024
  0
LINE
  5
27F
100
AcDbEntity
  8
0
100
AcDbLine
 62
7
  6
BYLAYER
 10
279.1549023184
 20
734.6911666636
 11
279.1549023184
 21
737.7121734023
  0
LINE
  5
280
100
AcDbEntity
  8
0
100
AcDbLine
 62
7
  6
BYLAYER
 10
280.2155669061
 20
737.0998122705
 11
280.2155669061
 21
735.3035379934
  0
LINE
  5
281
100
AcDbEntity
  8
0
100
AcDbLine
 62
7
  6
BYLAYER
 10
280.8973757324
 20
70.8240988039
 11
280.8973757324
 21
82.2551326437
  0
LINE
  5
282
100
AcDbEntity
  8
0
100
AcDbLine
 62
7
  6
BYLAYER
 10
280.904826324
 20
717.0850634686
 11
280.904826324
 21
721.9840779714
  0
LINE
  5
283
100
AcDbEntity
  8
0
100
AcDbLine
 62
7
  6
BYLAYER
 10
281.1635582142
 20
70.6842500846
 11
281.1635582142
 21
73.133757336
  0
LINE
  5
284
100
AcDbEntity
  8
0
100
AcDbLine
 62
7
  6
BYLAYER
 10
281.1721595952
 20
73.133757336
 11
281.1721595952
 21
70.6892160646
  0
LINE
  5
285
100
AcDbEntity
  8
0
100
AcDbLine
 62
7
  6
BYLAYER
 10
281.1952624338
 20
719.3822778402
 11
281.1952624338
 21
721.8317850916
  0
LINE
  5
286
100
AcDbEntity
  8
0
100
AcDbLine
 62
7
  6
BYLAYER
 10
281.3469330457
 20
737.7530029167
 11
281.3469330457
 21
735.9567286396
  0
LINE
  5
287
100
AcDbEntity
  8
0
100
AcDbLine
 62
7
  6
BYLAYER
 10
281.9126184706
 20
736.2833253225
 11
281.9126184706
 21
737.7530042765
  0
LINE
  5
288
100
AcDbEntity
  8
0
100
AcDbLine
 62
7
  6
BYLAYER
 10
282.2958718919
 20
719.3991230918
 11
282.2958718919
 21
721.8486303431
  0
LINE
  5
289
100
AcDbEntity
  8
0
100
AcDbLine
 62
7
  6
BYLAYER
 10
282.3035304451
 20
70.6892187841
 11
282.3035304451
 21
72.5635413357
  0
LINE
  5
28A
100
AcDbEntity
  8
0
100
AcDbLine
 62
7
  6
BYLAYER
 10
282.9025720858
 20
737.1814672201
 11
282.9025720858
 21
736.8548732568
  0
LINE
  5
28B
100
AcDbEntity
  8
0
100
AcDbLine
 62
7
  6
BYLAYER
 10
283.3373029683
 20
65.156188692
 11
283.3373029683
 21
69.1234138341
  0
LINE
  5
28C
100
AcDbEntity
  8
0
100
AcDbLine
 62
7
  6
BYLAYER
 10
284.008928835
 20
719.2412480604
 11
284.008928835
 21
719.9216667413
  0
LINE
  5
28D
100
AcDbEntity
  8
0
100
AcDbLine
 62
7
  6
BYLAYER
 10
284.1117785609
 20
718.006993693
 11
284.1117785609
 21
715.5574864416
  0
LINE
  5
28E
100
AcDbEntity
  8
0
100
AcDbLine
 62
7
  6
BYLAYER
 10
284.1117785609
 20
80.7237015838
 11
284.1117785609
 21
71.7421749954
  0
LINE
  5
28F
100
AcDbEntity
  8
0
100
AcDbLine
 62
7
  6
BYLAYER
 10
284.2108222283
 20
722.9542208358
 11
284.2108222283
 21
720.6337442807
  0
LINE
  5
290
100
AcDbEntity
  8
0
100
AcDbLine
 62
7
  6
BYLAYER
 10
284.6056835208
 20
71.5368519426
 11
284.6056835208
 21
80.518378531
  0
LINE
  5
291
100
AcDbEntity
  8
0
100
AcDbLine
 62
7
  6
BYLAYER
 10
284.6056835208
 20
715.3521633889
 11
284.6056835208
 21
717.8016706402
  0
LINE
  5
292
100
AcDbEntity
  8
0
100
AcDbLine
 62
7
  6
BYLAYER
 10
284.7459268356
 20
71.4806350837
 11
284.7459268356
 21
80.4621616722
  0
LINE
  5
293
100
AcDbEntity
  8
0
100
AcDbLine
 62
7
  6
BYLAYER
 10
284.7459268356
 20
715.29594653
 11
284.7459268356
 21
717.7454537814
  0
LINE
  5
294
100
AcDbEntity
  8
0
100
AcDbLine
 62
7
  6
BYLAYER
 10
284.8240537695
 20
715.2650280054
 11
284.8240537695
 21
80.4343986872
  0
LINE
  5
295
100
AcDbEntity
  8
0
100
AcDbLine
 62
7
  6
BYLAYER
 10
285.1092819096
 20
715.2663858273
 11
285.1092819096
 21
80.4357565091
  0
LINE
  5
296
100
AcDbEntity
  8
0
100
AcDbLine
 62
7
  6
BYLAYER
 10
285.1632730599
 20
80.4492952423
 11
285.1632730599
 21
71.4677686539
  0
LINE
  5
297
100
AcDbEntity
  8
0
100
AcDbLine
 62
7
  6
BYLAYER
 10
285.1632730599
 20
715.2830801001
 11
285.1632730599
 21
717.7325873515
  0
LINE
  5
298
100
AcDbEntity
  8
0
100
AcDbLine
 62
7
  6
BYLAYER
 10
285.4456551505
 20
738.9450962299
 11
285.4456551505
 21
739.149217457
  0
LINE
  5
299
100
AcDbEntity
  8
0
100
AcDbLine
 62
7
  6
BYLAYER
 10
285.445784685
 20
720.9824282452
 11
285.445784685
 21
721.1865494723
  0
LINE
  5
29A
100
AcDbEntity
  8
0
100
AcDbLine
 62
7
  6
BYLAYER
 10
285.4670004762
 20
737.9926038847
 11
285.4670004762
 21
738.1967251118
  0
LINE
  5
29B
100
AcDbEntity
  8
0
100
AcDbLine
 62
7
  6
BYLAYER
 10
285.4671300107
 20
720.0299359001
 11
285.4671300107
 21
720.2340571272
  0
LINE
  5
29C
100
AcDbEntity
  8
0
100
AcDbLine
 62
7
  6
BYLAYER
 10
285.4964545456
 20
739.1785463263
 11
285.4964545456
 21
738.9157686988
  0
LINE
  5
29D
100
AcDbEntity
  8
0
100
AcDbLine
 62
7
  6
BYLAYER
 10
285.4965840802
 20
721.2158783417
 11
285.4965840802
 21
720.9531007141
  0
LINE
  5
29E
100
AcDbEntity
  8
0
100
AcDbLine
 62
7
  6
BYLAYER
 10
285.8098197044
 20
738.3946507041
 11
285.8098197044
 21
737.938005391
  0
LINE
  5
29F
100
AcDbEntity
  8
0
100
AcDbLine
 62
7
  6
BYLAYER
 10
285.809949239
 20
720.4319827195
 11
285.809949239
 21
719.9753374064
  0
LINE
  5
2A0
100
AcDbEntity
  8
0
100
AcDbLine
 62
7
  6
BYLAYER
 10
285.8156852938
 20
715.0055278258
 11
285.8156852938
 21
80.1748985076
  0
LINE
  5
2A1
100
AcDbEntity
  8
0
100
AcDbLine
 62
7
  6
BYLAYER
 10
285.8252508345
 20
80.0898661748
 11
285.8252508345
 21
71.2033383503
  0
LINE
  5
2A2
100
AcDbEntity
  8
0
100
AcDbLine
 62
7
  6
BYLAYER
 10
285.8253763117
 20
715.0195111596
 11
285.8253763117
 21
717.469018411
  0
LINE
  5
2A3
100
AcDbEntity
  8
0
100
AcDbLine
 62
7
  6
BYLAYER
 10
285.8500079362
 20
738.704613116
 11
285.8500079362
 21
739.1785471762
  0
LINE
  5
2A4
100
AcDbEntity
  8
0
100
AcDbLine
 62
7
  6
BYLAYER
 10
285.8501374707
 20
720.7419451314
 11
285.8501374707
 21
721.2158791916
  0
LINE
  5
2A5
100
AcDbEntity
  8
0
100
AcDbLine
 62
7
  6
BYLAYER
 10
285.931857319
 20
737.9982068404
 11
285.931857319
 21
738.56475202
  0
LINE
  5
2A6
100
AcDbEntity
  8
0
100
AcDbLine
 62
7
  6
BYLAYER
 10
285.9319868535
 20
720.0355388558
 11
285.9319868535
 21
720.6020840354
  0
LINE
  5
2A7
100
AcDbEntity
  8
0
100
AcDbLine
 62
7
  6
BYLAYER
 10
285.9331356745
 20
714.8554622665
 11
285.9331356745
 21
80.0248329483
  0
LINE
  5
2A8
100
AcDbEntity
  8
0
100
AcDbLine
 62
7
  6
BYLAYER
 10
285.9716234233
 20
80.0084084346
 11
285.9716234233
 21
71.0268818461
  0
LINE
  5
2A9
100
AcDbEntity
  8
0
100
AcDbLine
 62
7
  6
BYLAYER
 10
285.9716234233
 20
714.8421932924
 11
285.9716234233
 21
717.2917005438
  0
LINE
  5
2AA
100
AcDbEntity
  8
0
100
AcDbLine
 62
7
  6
BYLAYER
 10
286.2141685649
 20
738.9683036955
 11
286.2141685649
 21
738.1612017018
  0
LINE
  5
2AB
100
AcDbEntity
  8
0
100
AcDbLine
 62
7
  6
BYLAYER
 10
286.2142980994
 20
721.0056357109
 11
286.2142980994
 21
720.1985337172
  0
LINE
  5
2AC
100
AcDbEntity
  8
0
100
AcDbLine
 62
7
  6
BYLAYER
 10
286.8034242158
 20
738.1612031181
 11
286.8034242158
 21
738.9683051119
  0
LINE
  5
2AD
100
AcDbEntity
  8
0
100
AcDbLine
 62
7
  6
BYLAYER
 10
286.8035537503
 20
720.1985351335
 11
286.8035537503
 21
721.0056371273
  0
LINE
  5
2AE
100
AcDbEntity
  8
0
100
AcDbLine
 62
7
  6
BYLAYER
 10
287.085741282
 20
737.9982143316
 11
287.085741282
 21
738.5647547936
  0
LINE
  5
2AF
100
AcDbEntity
  8
0
100
AcDbLine
 62
7
  6
BYLAYER
 10
287.0858708165
 20
720.0355463469
 11
287.0858708165
 21
720.602086809
  0
LINE
  5
2B0
100
AcDbEntity
  8
0
100
AcDbLine
 62
7
  6
BYLAYER
 10
287.1462434441
 20
739.1662307042
 11
287.1462434441
 21
738.6885557892
  0
LINE
  5
2B1
100
AcDbEntity
  8
0
100
AcDbLine
 62
7
  6
BYLAYER
 10
287.1463729786
 20
721.2035627196
 11
287.1463729786
 21
720.7258878046
  0
LINE
  5
2B2
100
AcDbEntity
  8
0
100
AcDbLine
 62
7
  6
BYLAYER
 10
287.2077813498
 20
737.9452269613
 11
287.2077813498
 21
738.3946540644
  0
LINE
  5
2B3
100
AcDbEntity
  8
0
100
AcDbLine
 62
7
  6
BYLAYER
 10
287.2079108843
 20
719.9825589767
 11
287.2079108843
 21
720.4319860797
  0
LINE
  5
2B4
100
AcDbEntity
  8
0
100
AcDbLine
 62
7
  6
BYLAYER
 10
287.3896576311
 20
79.6150550044
 11
287.3896576311
 21
70.6335284159
  0
LINE
  5
2B5
100
AcDbEntity
  8
0
100
AcDbLine
 62
7
  6
BYLAYER
 10
287.3896576311
 20
714.4488398622
 11
287.3896576311
 21
716.8983471135
  0
LINE
  5
2B6
100
AcDbEntity
  8
0
100
AcDbLine
 62
7
  6
BYLAYER
 10
287.4997968346
 20
738.9034517383
 11
287.4997968346
 21
739.166231554
  0
LINE
  5
2B7
100
AcDbEntity
  8
0
100
AcDbLine
 62
7
  6
BYLAYER
 10
287.4999263692
 20
720.9407837537
 11
287.4999263692
 21
721.2035635694
  0
LINE
  5
2B8
100
AcDbEntity
  8
0
100
AcDbLine
 62
7
  6
BYLAYER
 10
287.5292648868
 20
738.2090496566
 11
287.5292648868
 21
738.0049284296
  0
LINE
  5
2B9
100
AcDbEntity
  8
0
100
AcDbLine
 62
7
  6
BYLAYER
 10
287.5293944214
 20
720.246381672
 11
287.5293944214
 21
720.0422604449
  0
LINE
  5
2BA
100
AcDbEntity
  8
0
100
AcDbLine
 62
7
  6
BYLAYER
 10
287.5505966528
 20
739.1369029289
 11
287.5505966528
 21
738.9327817018
  0
LINE
  5
2BB
100
AcDbEntity
  8
0
100
AcDbLine
 62
7
  6
BYLAYER
 10
287.5507261873
 20
721.1742349442
 11
287.5507261873
 21
720.9701137171
  0
LINE
  5
2BC
100
AcDbEntity
  8
0
100
AcDbLine
 62
7
  6
BYLAYER
 10
288.6343173432
 20
716.7261430012
 11
288.6343173432
 21
714.2766357498
  0
LINE
  5
2BD
100
AcDbEntity
  8
0
100
AcDbLine
 62
7
  6
BYLAYER
 10
288.6343173432
 20
79.442850892
 11
288.6343173432
 21
70.4613243036
  0
LINE
  5
2BE
100
AcDbEntity
  8
0
100
AcDbLine
 62
7
  6
BYLAYER
 10
288.8070163059
 20
720.6340830008
 11
288.8070163059
 21
722.9542318837
  0
LINE
  5
2BF
100
AcDbEntity
  8
0
100
AcDbLine
 62
7
  6
BYLAYER
 10
289.008928835
 20
719.2412480604
 11
289.008928835
 21
719.9216667413
  0
LINE
  5
2C0
100
AcDbEntity
  8
0
100
AcDbLine
 62
7
  6
BYLAYER
 10
289.2853893964
 20
714.2716813643
 11
289.2853893964
 21
79.441052046
  0
LINE
  5
2C1
100
AcDbEntity
  8
0
100
AcDbLine
 62
7
  6
BYLAYER
 10
289.9224370759
 20
716.7989450601
 11
289.9224370759
 21
714.3494378087
  0
LINE
  5
2C2
100
AcDbEntity
  8
0
100
AcDbLine
 62
7
  6
BYLAYER
 10
289.9224370759
 20
79.5156529509
 11
289.9224370759
 21
70.5341263624
  0
LINE
  5
2C3
100
AcDbEntity
  8
0
100
AcDbLine
 62
7
  6
BYLAYER
 10
271.1800937624
 20
727.4778876831
 11
271.179212455
 21
725.0289658815
  0
LINE
  5
2C4
100
AcDbEntity
  8
0
100
AcDbLine
 62
7
  6
BYLAYER
 10
285.8274006686
 20
717.5036318568
 11
285.8264895185
 21
717.4861409444
  0
LINE
  5
2C5
100
AcDbEntity
  8
0
100
AcDbLine
 62
7
  6
BYLAYER
 10
267.7054831877
 20
728.3101677349
 11
267.7169425753
 21
728.1547665895
  0
LINE
  5
2C6
100
AcDbEntity
  8
0
100
AcDbLine
 62
7
  6
BYLAYER
 10
291.2428114969
 20
717.2632520352
 11
291.2428114969
 21
714.8137447838
  0
LINE
  5
2C7
100
AcDbEntity
  8
0
100
AcDbLine
 62
7
  6
BYLAYER
 10
291.2428114969
 20
79.979959926
 11
291.2428114969
 21
70.9984333375
  0
LINE
  5
2C8
100
AcDbEntity
  8
0
100
AcDbLine
 62
7
  6
BYLAYER
 10
291.391299433
 20
714.9010788688
 11
291.391299433
 21
80.0704495506
  0
LINE
  5
2C9
100
AcDbEntity
  8
0
100
AcDbLine
 62
7
  6
BYLAYER
 10
291.5779920311
 20
80.4163112699
 11
291.5779920311
 21
715.2469405881
  0
LINE
  5
2CA
100
AcDbEntity
  8
0
100
AcDbLine
 62
7
  6
BYLAYER
 10
291.5792992787
 20
80.3851574166
 11
291.5792992787
 21
71.4036308282
  0
LINE
  5
2CB
100
AcDbEntity
  8
0
100
AcDbLine
 62
7
  6
BYLAYER
 10
291.5792992787
 20
715.2189422744
 11
291.5792992787
 21
717.6684495258
  0
LINE
  5
2CC
100
AcDbEntity
  8
0
100
AcDbLine
 62
7
  6
BYLAYER
 10
291.6905986552
 20
715.3698161118
 11
291.6905986552
 21
80.5391867936
  0
LINE
  5
2CD
100
AcDbEntity
  8
0
100
AcDbLine
 62
7
  6
BYLAYER
 10
291.7768791062
 20
721.2396195862
 11
291.7768791062
 21
718.7901123348
  0
LINE
  5
2CE
100
AcDbEntity
  8
0
100
AcDbLine
 62
7
  6
BYLAYER
 10
291.7768791061
 20
71.872102991
 11
291.7768791061
 21
70.0757863859
  0
LINE
  5
2CF
100
AcDbEntity
  8
0
100
AcDbLine
 62
7
  6
BYLAYER
 10
292.9082499561
 20
70.0757891053
 11
292.9082499561
 21
72.5252963567
  0
LINE
  5
2D0
100
AcDbEntity
  8
0
100
AcDbLine
 62
7
  6
BYLAYER
 10
292.9082499561
 20
718.7901150543
 11
292.9082499561
 21
721.2396223057
  0
LINE
  5
2D1
100
AcDbEntity
  8
0
100
AcDbLine
 62
7
  6
BYLAYER
 10
295.3373029683
 20
65.156188692
 11
295.3373029683
 21
69.123321868
  0
LINE
  5
2D2
100
AcDbEntity
  8
0
100
AcDbLine
 62
7
  6
BYLAYER
 10
299.767106647
 20
729.5938051735
 11
299.767106647
 21
731.935592221
  0
LINE
  5
2D3
100
AcDbEntity
  8
0
100
AcDbLine
 62
7
  6
BYLAYER
 10
301.0020691037
 20
729.9424891382
 11
301.0020691037
 21
730.1466103653
  0
LINE
  5
2D4
100
AcDbEntity
  8
0
100
AcDbLine
 62
7
  6
BYLAYER
 10
301.0234144294
 20
728.9899967931
 11
301.0234144294
 21
729.1941180202
  0
LINE
  5
2D5
100
AcDbEntity
  8
0
100
AcDbLine
 62
7
  6
BYLAYER
 10
301.0528684989
 20
730.1759392347
 11
301.0528684989
 21
729.9131616071
  0
LINE
  5
2D6
100
AcDbEntity
  8
0
100
AcDbLine
 62
7
  6
BYLAYER
 10
301.3662336577
 20
729.3920436124
 11
301.3662336577
 21
728.9353982994
  0
LINE
  5
2D7
100
AcDbEntity
  8
0
100
AcDbLine
 62
7
  6
BYLAYER
 10
301.4064218894
 20
729.7020060244
 11
301.4064218894
 21
730.1759400845
  0
LINE
  5
2D8
100
AcDbEntity
  8
0
100
AcDbLine
 62
7
  6
BYLAYER
 10
301.4882712722
 20
728.9955997488
 11
301.4882712722
 21
729.5621449283
  0
LINE
  5
2D9
100
AcDbEntity
  8
0
100
AcDbLine
 62
7
  6
BYLAYER
 10
301.6743984301
 20
733.0367610724
 11
301.6743984301
 21
730.6379598253
  0
LINE
  5
2DA
100
AcDbEntity
  8
0
100
AcDbLine
 62
7
  6
BYLAYER
 10
301.6829951008
 20
733.6949149791
 11
301.6829951008
 21
733.6899489991
  0
LINE
  5
2DB
100
AcDbEntity
  8
0
100
AcDbLine
 62
7
  6
BYLAYER
 10
301.7705825181
 20
729.9656966039
 11
301.7705825181
 21
729.1585946102
  0
LINE
  5
2DC
100
AcDbEntity
  8
0
100
AcDbLine
 62
7
  6
BYLAYER
 10
301.90871065
 20
730.9138483475
 11
301.90871065
 21
733.3633555989
  0
LINE
  5
2DD
100
AcDbEntity
  8
0
100
AcDbLine
 62
7
  6
BYLAYER
 10
302.359838169
 20
729.1585960264
 11
302.359838169
 21
729.9656980203
  0
LINE
  5
2DE
100
AcDbEntity
  8
0
100
AcDbLine
 62
7
  6
BYLAYER
 10
302.5955725259
 20
78.1182412647
 11
302.5955725259
 21
75.6687340134
  0
LINE
  5
2DF
100
AcDbEntity
  8
0
100
AcDbLine
 62
7
  6
BYLAYER
 10
302.6421552352
 20
728.9956072399
 11
302.6421552352
 21
729.5621477019
  0
LINE
  5
2E0
100
AcDbEntity
  8
0
100
AcDbLine
 62
7
  6
BYLAYER
 10
302.7026573973
 20
730.1636236125
 11
302.7026573973
 21
729.6859486975
  0
LINE
  5
2E1
100
AcDbEntity
  8
0
100
AcDbLine
 62
7
  6
BYLAYER
 10
302.7369932933
 20
726.9142160445
 11
302.7369932933
 21
724.4647087932
  0
LINE
  5
2E2
100
AcDbEntity
  8
0
100
AcDbLine
 62
7
  6
BYLAYER
 10
302.764195303
 20
728.9426198697
 11
302.764195303
 21
729.3920469727
  0
LINE
  5
2E3
100
AcDbEntity
  8
0
100
AcDbLine
 62
7
  6
BYLAYER
 10
302.8884628008
 20
78.2873405344
 11
302.8884628008
 21
76.0769771716
  0
LINE
  5
2E4
100
AcDbEntity
  8
0
100
AcDbLine
 62
7
  6
BYLAYER
 10
302.9713055132
 20
727.2408105711
 11
302.9713055132
 21
724.7913033198
  0
LINE
  5
2E5
100
AcDbEntity
  8
0
100
AcDbLine
 62
7
  6
BYLAYER
 10
303.0562107879
 20
729.9008446466
 11
303.0562107879
 21
730.1636244624
  0
LINE
  5
2E6
100
AcDbEntity
  8
0
100
AcDbLine
 62
7
  6
BYLAYER
 10
303.0856788401
 20
729.206442565
 11
303.0856788401
 21
729.0023213379
  0
LINE
  5
2E7
100
AcDbEntity
  8
0
100
AcDbLine
 62
7
  6
BYLAYER
 10
303.107010606
 20
730.1342958372
 11
303.107010606
 21
729.9301746101
  0
LINE
  5
2E8
100
AcDbEntity
  8
0
100
AcDbLine
 62
7
  6
BYLAYER
 10
304.2027443224
 20
725.3109554929
 11
304.2027443224
 21
722.8614482415
  0
LINE
  5
2E9
100
AcDbEntity
  8
0
100
AcDbLine
 62
7
  6
BYLAYER
 10
304.2027443224
 20
87.7630343421
 11
304.2027443224
 21
79.0461367953
  0
LINE
  5
2EA
100
AcDbEntity
  8
0
100
AcDbLine
 62
7
  6
BYLAYER
 10
304.4184677251
 20
87.8875815632
 11
304.4184677251
 21
722.7182108815
  0
LINE
  5
2EB
100
AcDbEntity
  8
0
100
AcDbLine
 62
7
  6
BYLAYER
 10
304.5652132537
 20
728.2013089532
 11
304.5652132537
 21
728.8817276341
  0
LINE
  5
2EC
100
AcDbEntity
  8
0
100
AcDbLine
 62
7
  6
BYLAYER
 10
304.5686467002
 20
728.9362181698
 11
304.5686467002
 21
728.7069229325
  0
LINE
  5
2ED
100
AcDbEntity
  8
0
100
AcDbLine
 62
7
  6
BYLAYER
 10
304.6169136815
 20
728.6562133614
 11
304.6169136815
 21
729.046192176
  0
LINE
  5
2EE
100
AcDbEntity
  8
0
100
AcDbLine
 62
7
  6
BYLAYER
 10
305.2303535597
 20
722.8910128008
 11
305.2303535597
 21
88.0603834825
  0
LINE
  5
2EF
100
AcDbEntity
  8
0
100
AcDbLine
 62
7
  6
BYLAYER
 10
305.3816215583
 20
79.161430406
 11
305.3816215583
 21
88.1429569944
  0
LINE
  5
2F0
100
AcDbEntity
  8
0
100
AcDbLine
 62
7
  6
BYLAYER
 10
305.3816215583
 20
722.9767418522
 11
305.3816215583
 21
725.4262491036
  0
LINE
  5
2F1
100
AcDbEntity
  8
0
100
AcDbLine
 62
7
  6
BYLAYER
 10
306.1858253319
 20
79.9237419016
 11
306.1858253319
 21
88.8999163054
  0
LINE
  5
2F2
100
AcDbEntity
  8
0
100
AcDbLine
 62
7
  6
BYLAYER
 10
306.1858253319
 20
723.7390533478
 11
306.1858253319
 21
726.1885605992
  0
LINE
  5
2F3
100
AcDbEntity
  8
0
100
AcDbLine
 62
7
  6
BYLAYER
 10
306.3205000651
 20
724.1068483865
 11
306.3205000651
 21
89.2762190682
  0
LINE
  5
2F4
100
AcDbEntity
  8
0
100
AcDbLine
 62
7
  6
BYLAYER
 10
306.3345098011
 20
89.2762190683
 11
306.3345098011
 21
80.457195058
  0
LINE
  5
2F5
100
AcDbEntity
  8
0
100
AcDbLine
 62
7
  6
BYLAYER
 10
306.3345098011
 20
724.2725065042
 11
306.3345098011
 21
726.7220137556
  0
LINE
  5
2F6
100
AcDbEntity
  8
0
100
AcDbLine
 62
7
  6
BYLAYER
 10
304.6168997899
 20
729.0461921761
 11
304.6163444423
 21
729.058508213
  0
LINE
  5
2F7
100
AcDbEntity
  8
0
100
AcDbLine
 62
7
  6
BYLAYER
 10
291.566656772
 20
80.2983619516
 11
291.5792657954
 21
80.3851574333
  0
LINE
  5
2F8
100
AcDbEntity
  8
0
100
AcDbLine
 62
7
  6
BYLAYER
 10
291.5792657954
 20
71.4036308449
 11
291.5666567721
 21
71.3168353632
  0
LINE
  5
2F9
100
AcDbEntity
  8
0
100
AcDbLine
 62
7
  6
BYLAYER
 10
273.3144602114
 20
721.2899970156
 11
273.4335922609
 21
721.2190353692
  0
LINE
  5
2FA
100
AcDbEntity
  8
0
100
AcDbLine
 62
7
  6
BYLAYER
 10
273.3058537988
 20
721.2852118984
 11
273.4246944435
 21
721.2140732773
  0
LINE
  5
2FB
100
AcDbEntity
  8
0
100
AcDbLine
 62
7
  6
BYLAYER
 10
270.1197204434
 20
723.2761493272
 11
270.1850644253
 21
723.2348376275
  0
LINE
  5
2FC
100
AcDbEntity
  8
0
100
AcDbLine
 62
7
  6
BYLAYER
 10
270.1197204434
 20
723.2761493272
 11
270.1840183367
 21
723.234301422
  0
LINE
  5
2FD
100
AcDbEntity
  8
0
100
AcDbLine
 62
7
  6
BYLAYER
 10
304.4184677251
 20
87.8875815632
 11
291.6905986552
 21
80.5391867936
  0
LINE
  5
2FE
100
AcDbEntity
  8
0
100
AcDbLine
 62
7
  6
BYLAYER
 10
281.1721595952
 20
70.6892160646
 11
281.1635582142
 21
70.6842500846
  0
LINE
  5
2FF
100
AcDbEntity
  8
0
100
AcDbLine
 62
7
  6
BYLAYER
 10
282.3035304451
 20
70.6892187841
 11
284.1156626379
 21
71.7354475483
  0
LINE
  5
300
100
AcDbEntity
  8
0
100
AcDbLine
 62
7
  6
BYLAYER
 10
304.2027443224
 20
79.0461367953
 11
302.5955725259
 21
78.1182412647
  0
LINE
  5
301
100
AcDbEntity
  8
0
100
AcDbLine
 62
7
  6
BYLAYER
 10
291.5792992787
 20
71.7580309053
 11
292.9082499561
 21
72.5252963567
  0
LINE
  5
302
100
AcDbEntity
  8
0
100
AcDbLine
 62
7
  6
BYLAYER
 10
302.5955725258
 20
75.6687340133
 11
292.9082499567
 21
70.0757891057
  0
LINE
  5
303
100
AcDbEntity
  8
0
100
AcDbLine
 62
7
  6
BYLAYER
 10
284.3639107476
 20
715.4754220505
 11
284.8240537695
 21
715.2650280055
  0
LINE
  5
304
100
AcDbEntity
  8
0
100
AcDbLine
 62
7
  6
BYLAYER
 10
284.1216189448
 20
715.587108965
 11
284.3639107476
 21
715.4754220505
  0
LINE
  5
305
100
AcDbEntity
  8
0
100
AcDbLine
 62
7
  6
BYLAYER
 10
284.1277364544
 20
715.591520211
 11
284.8240537695
 21
715.2650280055
  0
LINE
  5
306
100
AcDbEntity
  8
0
100
AcDbLine
 62
7
  6
BYLAYER
 10
291.5792992787
 20
715.4340733831
 11
291.6905986552
 21
715.3698161118
  0
LINE
  5
307
100
AcDbEntity
  8
0
100
AcDbLine
 62
7
  6
BYLAYER
 10
285.5179313008
 20
720.0006072749
 11
285.4671314827
 21
720.0299359001
  0
LINE
  5
308
100
AcDbEntity
  8
0
100
AcDbLine
 62
7
  6
BYLAYER
 10
269.9615173476
 20
728.9819038744
 11
269.9107175295
 21
729.0112324996
  0
LINE
  5
309
100
AcDbEntity
  8
0
100
AcDbLine
 62
7
  6
BYLAYER
 10
286.2083433688
 20
720.1950924119
 11
285.9319868535
 21
720.3546433108
  0
LINE
  5
30A
100
AcDbEntity
  8
0
100
AcDbLine
 62
7
  6
BYLAYER
 10
270.6519294155
 20
729.1763890113
 11
270.3755729003
 21
729.3359399103
  0
LINE
  5
30B
100
AcDbEntity
  8
0
100
AcDbLine
 62
7
  6
BYLAYER
 10
287.1250431077
 20
720.0129307257
 11
286.8035595706
 21
720.1985351335
  0
LINE
  5
30C
100
AcDbEntity
  8
0
100
AcDbLine
 62
7
  6
BYLAYER
 10
285.8099467857
 20
720.7721847646
 11
285.445786157
 21
720.9824282452
  0
LINE
  5
30D
100
AcDbEntity
  8
0
100
AcDbLine
 62
7
  6
BYLAYER
 10
271.5686291544
 20
728.9942273252
 11
271.2471456173
 21
729.1798317329
  0
LINE
  5
30E
100
AcDbEntity
  8
0
100
AcDbLine
 62
7
  6
BYLAYER
 10
270.2535328325
 20
729.753481364
 11
269.8893722038
 21
729.9637248447
  0
LINE
  5
30F
100
AcDbEntity
  8
0
100
AcDbLine
 62
7
  6
BYLAYER
 10
270.2937235175
 20
730.197175791
 11
270.6578841462
 21
729.9869323104
  0
LINE
  5
310
100
AcDbEntity
  8
0
100
AcDbLine
 62
7
  6
BYLAYER
 10
271.6514969311
 20
729.4132826792
 11
271.9729804681
 21
729.2276782715
  0
LINE
  5
311
100
AcDbEntity
  8
0
100
AcDbLine
 62
7
  6
BYLAYER
 10
285.8501374707
 20
721.2158791916
 11
286.2142980994
 21
721.0056357109
  0
LINE
  5
312
100
AcDbEntity
  8
0
100
AcDbLine
 62
7
  6
BYLAYER
 10
287.2079108843
 20
720.4319860797
 11
287.5293944214
 21
720.246381672
  0
LINE
  5
313
100
AcDbEntity
  8
0
100
AcDbLine
 62
7
  6
BYLAYER
 10
271.9435124159
 20
730.1848601689
 11
271.9943122341
 21
730.1555315437
  0
LINE
  5
314
100
AcDbEntity
  8
0
100
AcDbLine
 62
7
  6
BYLAYER
 10
287.4999263692
 20
721.2035635694
 11
287.5507261873
 21
721.1742349442
  0
LINE
  5
315
100
AcDbEntity
  8
0
100
AcDbLine
 62
7
  6
BYLAYER
 10
288.8866761971
 20
720.4587340132
 11
291.7768791062
 21
718.7901123348
  0
LINE
  5
316
100
AcDbEntity
  8
0
100
AcDbLine
 62
7
  6
BYLAYER
 10
291.7768791062
 20
721.2396195862
 11
288.8070163059
 21
722.9542318837
  0
LINE
  5
317
100
AcDbEntity
  8
0
100
AcDbLine
 62
7
  6
BYLAYER
 10
273.2506023527
 20
731.9355284832
 11
271.4828280399
 21
732.9561303694
  0
LINE
  5
318
100
AcDbEntity
  8
0
100
AcDbLine
 62
7
  6
BYLAYER
 10
274.1344762613
 20
733.2623185839
 11
275.1244298765
 21
732.6907815276
  0
LINE
  5
319
100
AcDbEntity
  8
0
100
AcDbLine
 62
7
  6
BYLAYER
 10
274.2051754579
 20
734.8544643252
 11
274.9829961556
 21
734.4053994953
  0
LINE
  5
31A
100
AcDbEntity
  8
0
100
AcDbLine
 62
7
  6
BYLAYER
 10
304.4184677251
 20
722.7182108815
 11
304.1946504483
 21
722.8474289232
  0
LINE
  5
31B
100
AcDbEntity
  8
0
100
AcDbLine
 62
7
  6
BYLAYER
 10
280.2155669061
 20
737.0998122705
 11
279.1549023184
 21
737.7121734023
  0
LINE
  5
31C
100
AcDbEntity
  8
0
100
AcDbLine
 62
7
  6
BYLAYER
 10
282.9025720858
 20
737.1814672201
 11
281.9126184706
 21
737.7530042765
  0
LINE
  5
31D
100
AcDbEntity
  8
0
100
AcDbLine
 62
7
  6
BYLAYER
 10
282.4429375166
 20
739.2839147545
 11
284.2107118295
 21
738.2633128682
  0
LINE
  5
31E
100
AcDbEntity
  8
0
100
AcDbLine
 62
7
  6
BYLAYER
 10
299.7671257827
 20
729.2820162687
 11
302.7369885829
 21
727.5674039713
  0
LINE
  5
31F
100
AcDbEntity
  8
0
100
AcDbLine
 62
7
  6
BYLAYER
 10
301.0742157196
 20
728.9606681679
 11
301.0234159014
 21
728.9899967931
  0
LINE
  5
320
100
AcDbEntity
  8
0
100
AcDbLine
 62
7
  6
BYLAYER
 10
285.5178017663
 20
737.9632752595
 11
285.4670019482
 21
737.9926038847
  0
LINE
  5
321
100
AcDbEntity
  8
0
100
AcDbLine
 62
7
  6
BYLAYER
 10
301.7646277874
 20
729.1551533048
 11
301.4882712722
 21
729.3147042037
  0
LINE
  5
322
100
AcDbEntity
  8
0
100
AcDbLine
 62
7
  6
BYLAYER
 10
286.2082138342
 20
738.1577603965
 11
285.931857319
 21
738.3173112954
  0
LINE
  5
323
100
AcDbEntity
  8
0
100
AcDbLine
 62
7
  6
BYLAYER
 10
302.6813275264
 20
728.9729916187
 11
302.3598439893
 21
729.1585960264
  0
LINE
  5
324
100
AcDbEntity
  8
0
100
AcDbLine
 62
7
  6
BYLAYER
 10
301.3662312044
 20
729.7322456575
 11
301.0020705757
 21
729.9424891382
  0
LINE
  5
325
100
AcDbEntity
  8
0
100
AcDbLine
 62
7
  6
BYLAYER
 10
287.1249135731
 20
737.9755987103
 11
286.8034300361
 21
738.1612031181
  0
LINE
  5
326
100
AcDbEntity
  8
0
100
AcDbLine
 62
7
  6
BYLAYER
 10
285.8098172512
 20
738.7348527492
 11
285.4456566225
 21
738.9450962299
  0
LINE
  5
327
100
AcDbEntity
  8
0
100
AcDbLine
 62
7
  6
BYLAYER
 10
301.4064218894
 20
730.1759400845
 11
301.7705825181
 21
729.9656966039
  0
LINE
  5
328
100
AcDbEntity
  8
0
100
AcDbLine
 62
7
  6
BYLAYER
 10
302.764195303
 20
729.3920469727
 11
303.0856788401
 21
729.206442565
  0
LINE
  5
329
100
AcDbEntity
  8
0
100
AcDbLine
 62
7
  6
BYLAYER
 10
285.8500079362
 20
739.1785471762
 11
286.2141685649
 21
738.9683036955
  0
LINE
  5
32A
100
AcDbEntity
  8
0
100
AcDbLine
 62
7
  6
BYLAYER
 10
287.2077813498
 20
738.3946540644
 11
287.5292648868
 21
738.2090496566
  0
LINE
  5
32B
100
AcDbEntity
  8
0
100
AcDbLine
 62
7
  6
BYLAYER
 10
303.0562107879
 20
730.1636244624
 11
303.107010606
 21
730.1342958372
  0
LINE
  5
32C
100
AcDbEntity
  8
0
100
AcDbLine
 62
7
  6
BYLAYER
 10
287.4997968346
 20
739.166231554
 11
287.5505966528
 21
739.1369029289
  0
ARC
  5
32D
100
AcDbEntity
  8
0
100
AcDbCircle
 62
7
  6
BYLAYER
 10
195.7535377034
 20
-25.805729432
 40
136.3193163257
100
AcDbArc
 50
56.6385039696
 51
56.9066618881
  0
ARC
  5
32E
100
AcDbEntity
  8
0
100
AcDbCircle
 62
7
  6
BYLAYER
 10
195.7535377057
 20
-34.787256017
 40
136.3193163215
100
AcDbArc
 50
56.6385039696
 51
56.9066618881
  0
ARC
  5
32F
100
AcDbEntity
  8
0
100
AcDbCircle
 62
7
  6
BYLAYER
 10
196.3531960084
 20
-24.8949586094
 40
135.228860653
100
AcDbArc
 50
56.3689065087
 51
56.6385016254
  0
ARC
  5
330
100
AcDbEntity
  8
0
100
AcDbCircle
 62
7
  6
BYLAYER
 10
270.8907998029
 20
83.5702876612
 40
3.858359679
100
AcDbArc
 50
258.1330873672
 51
258.6283348269
  0
ARC
  5
331
100
AcDbEntity
  8
0
100
AcDbCircle
 62
7
  6
BYLAYER
 10
270.8843261374
 20
83.5394085094
 40
3.8268092409
100
AcDbArc
 50
257.8060011599
 51
258.1328680149
  0
ARC
  5
332
100
AcDbEntity
  8
0
100
AcDbCircle
 62
7
  6
BYLAYER
 10
270.8729407864
 20
83.4872295875
 40
3.7734027388
100
AcDbArc
 50
256.8068034186
 51
257.8076276332
  0
ARC
  5
333
100
AcDbEntity
  8
0
100
AcDbCircle
 62
7
  6
BYLAYER
 10
270.8524625429
 20
83.4000375143
 40
3.6838381551
100
AcDbArc
 50
255.7026280401
 51
256.8073856578
  0
ARC
  5
334
100
AcDbEntity
  8
0
100
AcDbCircle
 62
7
  6
BYLAYER
 10
270.6580977095
 20
82.7873799143
 40
3.040634872
100
AcDbArc
 50
248.1119216206
 51
249.3247364247
  0
ARC
  5
335
100
AcDbEntity
  8
0
100
AcDbCircle
 62
7
  6
BYLAYER
 10
268.731363465
 20
91.0102204404
 40
1.0330703116
100
AcDbArc
 50
183.1633516119
 51
192.2224450404
  0
ARC
  5
336
100
AcDbEntity
  8
0
100
AcDbCircle
 62
7
  6
BYLAYER
 10
268.7275402236
 20
82.0279594863
 40
1.0291782648
100
AcDbArc
 50
180.0637452183
 51
192.2275495368
  0
ARC
  5
337
100
AcDbEntity
  8
0
100
AcDbCircle
 62
7
  6
BYLAYER
 10
268.7110245823
 20
91.0084236702
 40
1.0126634919
100
AcDbArc
 50
182.5077137644
 51
183.1253487333
  0
ARC
  5
338
100
AcDbEntity
  8
0
100
AcDbCircle
 62
7
  6
BYLAYER
 10
268.7089304822
 20
91.0083462906
 40
1.0105678864
100
AcDbArc
 50
179.6930474779
 51
182.5077663916
  0
ARC
  5
339
100
AcDbEntity
  8
0
100
AcDbCircle
 62
7
  6
BYLAYER
 10
269.5620657957
 20
89.6594281852
 40
0.6920966818
100
AcDbArc
 50
268.6707539551
 51
269.8615885194
  0
ARC
  5
33A
100
AcDbEntity
  8
0
100
AcDbCircle
 62
7
  6
BYLAYER
 10
269.5621795485
 20
89.6566675641
 40
0.689336354
100
AcDbArc
 50
269.8515794158
 51
274.6003949691
  0
ARC
  5
33B
100
AcDbEntity
  8
0
100
AcDbCircle
 62
7
  6
BYLAYER
 10
270.3262719116
 20
88.6275045883
 40
0.2676040638
100
AcDbArc
 50
226.6966660123
 51
229.8644333219
  0
ARC
  5
33C
100
AcDbEntity
  8
0
100
AcDbCircle
 62
7
  6
BYLAYER
 10
222.0670622719
 20
610.0991069205
 40
147.0230486827
100
AcDbArc
 50
59.4347009724
 51
61.5929260377
  0
ARC
  5
33D
100
AcDbEntity
  8
0
100
AcDbCircle
 62
7
  6
BYLAYER
 10
226.9048320977
 20
618.2293787822
 40
137.5623774622
100
AcDbArc
 50
57.1914456582
 51
59.4476779068
  0
ARC
  5
33E
100
AcDbEntity
  8
0
100
AcDbCircle
 62
7
  6
BYLAYER
 10
195.7535376965
 20
611.4775626664
 40
136.3193163385
100
AcDbArc
 50
56.6385039697
 51
56.9066618881
  0
ARC
  5
33F
100
AcDbEntity
  8
0
100
AcDbCircle
 62
7
  6
BYLAYER
 10
195.7535377041
 20
609.0280554269
 40
136.3193163244
100
AcDbArc
 50
56.6385039696
 51
56.9066618881
  0
ARC
  5
340
100
AcDbEntity
  8
0
100
AcDbCircle
 62
7
  6
BYLAYER
 10
196.3156359763
 20
612.331463084
 40
135.2970148229
100
AcDbArc
 50
56.4043968661
 51
56.6384606992
  0
ARC
  5
341
100
AcDbEntity
  8
0
100
AcDbCircle
 62
7
  6
BYLAYER
 10
196.3531958218
 20
609.9388259658
 40
135.2288609917
100
AcDbArc
 50
56.3689065085
 51
56.6385016252
  0
ARC
  5
342
100
AcDbEntity
  8
0
100
AcDbCircle
 62
7
  6
BYLAYER
 10
273.5068591225
 20
729.5385921277
 40
7.0722034625
100
AcDbArc
 50
224.9940665846
 51
226.5196440187
  0
ARC
  5
343
100
AcDbEntity
  8
0
100
AcDbCircle
 62
7
  6
BYLAYER
 10
273.2309440873
 20
729.2646778528
 40
6.6834154258
100
AcDbArc
 50
222.154398222
 51
225.0058498459
  0
ARC
  5
344
100
AcDbEntity
  8
0
100
AcDbCircle
 62
7
  6
BYLAYER
 10
272.8103160896
 20
728.8867109601
 40
6.1179226401
100
AcDbArc
 50
217.7914742024
 51
222.1740165079
  0
ARC
  5
345
100
AcDbEntity
  8
0
100
AcDbCircle
 62
7
  6
BYLAYER
 10
272.5242932624
 20
728.6601812614
 40
5.7530803894
100
AcDbArc
 50
216.8818297645
 51
217.7542025018
  0
ARC
  5
346
100
AcDbEntity
  8
0
100
AcDbCircle
 62
7
  6
BYLAYER
 10
272.4353501186
 20
728.5934429392
 40
5.6418828784
100
AcDbArc
 50
216.0065380957
 51
216.8818133732
  0
ARC
  5
347
100
AcDbEntity
  8
0
100
AcDbCircle
 62
7
  6
BYLAYER
 10
271.6459974752
 20
727.4827283116
 40
4.3720328765
100
AcDbArc
 50
211.4503959941
 51
212.605925218
  0
ARC
  5
348
100
AcDbEntity
  8
0
100
AcDbCircle
 62
7
  6
BYLAYER
 10
271.6459974744
 20
729.9322355625
 40
4.3720328757
100
AcDbArc
 50
211.4503959941
 51
212.6059252182
  0
ARC
  5
349
100
AcDbEntity
  8
0
100
AcDbCircle
 62
7
  6
BYLAYER
 10
271.5645030415
 20
729.8823889394
 40
4.2765026269
100
AcDbArc
 50
210.2776792141
 51
211.4503529302
  0
ARC
  5
34A
100
AcDbEntity
  8
0
100
AcDbCircle
 62
7
  6
BYLAYER
 10
271.5645030401
 20
727.4328816872
 40
4.2765026254
100
AcDbArc
 50
210.2776792143
 51
211.4503529304
  0
ARC
  5
34B
100
AcDbEntity
  8
0
100
AcDbCircle
 62
7
  6
BYLAYER
 10
270.8352033158
 20
731.084124654
 40
3.6134855766
100
AcDbArc
 50
255.1338532777
 51
255.7007518065
  0
ARC
  5
34C
100
AcDbEntity
  8
0
100
AcDbCircle
 62
7
  6
BYLAYER
 10
270.8068544354
 20
730.9793694897
 40
3.5049635946
100
AcDbArc
 50
252.9556103543
 51
255.1424160592
  0
ARC
  5
34D
100
AcDbEntity
  8
0
100
AcDbCircle
 62
7
  6
BYLAYER
 10
271.8515738227
 20
727.0419685172
 40
2.8160457114
100
AcDbArc
 50
56.7600478618
 51
57.6997949775
  0
ARC
  5
34E
100
AcDbEntity
  8
0
100
AcDbCircle
 62
7
  6
BYLAYER
 10
268.9554595325
 20
725.9233009201
 40
1.2622911558
100
AcDbArc
 50
203.2978559075
 51
210.8130625853
  0
ARC
  5
34F
100
AcDbEntity
  8
0
100
AcDbCircle
 62
7
  6
BYLAYER
 10
268.8569862385
 20
725.8795554482
 40
1.1545460932
100
AcDbArc
 50
198.9103723735
 51
203.2367543956
  0
ARC
  5
350
100
AcDbEntity
  8
0
100
AcDbCircle
 62
7
  6
BYLAYER
 10
268.8049739259
 20
725.8616081788
 40
1.0995245564
100
AcDbArc
 50
194.7289007133
 51
198.9040153064
  0
ARC
  5
351
100
AcDbEntity
  8
0
100
AcDbCircle
 62
7
  6
BYLAYER
 10
268.7713254999
 20
725.8612026157
 40
1.0658525496
100
AcDbArc
 50
181.4306066608
 51
188.4130583177
  0
ARC
  5
352
100
AcDbEntity
  8
0
100
AcDbCircle
 62
7
  6
BYLAYER
 10
268.7663249891
 20
725.8513290728
 40
1.0595322245
100
AcDbArc
 50
190.6966880814
 51
194.7226818997
  0
ARC
  5
353
100
AcDbEntity
  8
0
100
AcDbCircle
 62
7
  6
BYLAYER
 10
268.7613642948
 20
725.86068226
 40
1.055881493
100
AcDbArc
 50
180.9172805734
 51
181.4158741303
  0
ARC
  5
354
100
AcDbEntity
  8
0
100
AcDbCircle
 62
7
  6
BYLAYER
 10
268.7335536237
 20
725.8452522972
 40
1.0262024067
100
AcDbArc
 50
183.369083218
 51
190.7029136894
  0
ARC
  5
355
100
AcDbEntity
  8
0
100
AcDbCircle
 62
7
  6
BYLAYER
 10
268.2848179173
 20
728.4450111179
 40
0.5610815504
100
AcDbArc
 50
156.2533606345
 51
164.7887933692
  0
ARC
  5
356
100
AcDbEntity
  8
0
100
AcDbCircle
 62
7
  6
BYLAYER
 10
270.2170547803
 20
723.3870965415
 40
0.1331362126
100
AcDbArc
 50
180.0043220632
 51
182.1675270729
  0
ARC
  5
357
100
AcDbEntity
  8
0
100
AcDbCircle
 62
7
  6
BYLAYER
 10
289.4690482373
 20
92.9197381952
 40
13.3208872785
100
AcDbArc
 50
247.4298569172
 51
248.5866844906
  0
ARC
  5
358
100
AcDbEntity
  8
0
100
AcDbCircle
 62
7
  6
BYLAYER
 10
289.4690482367
 20
83.9382116051
 40
13.3208872767
100
AcDbArc
 50
247.4298569172
 51
248.5866844906
  0
ARC
  5
359
100
AcDbEntity
  8
0
100
AcDbCircle
 62
7
  6
BYLAYER
 10
289.3004097985
 20
83.5325907185
 40
12.8816069278
100
AcDbArc
 50
246.2470518674
 51
247.4300322935
  0
ARC
  5
35A
100
AcDbEntity
  8
0
100
AcDbCircle
 62
7
  6
BYLAYER
 10
289.3004097893
 20
92.5141172851
 40
12.8816069042
100
AcDbArc
 50
246.2470518681
 51
247.4300322943
  0
ARC
  5
35B
100
AcDbEntity
  8
0
100
AcDbCircle
 62
7
  6
BYLAYER
 10
289.6891506584
 20
81.7249358326
 40
11.3255625839
100
AcDbArc
 50
250.8378829736
 51
254.510085161
  0
ARC
  5
35C
100
AcDbEntity
  8
0
100
AcDbCircle
 62
7
  6
BYLAYER
 10
289.5681659623
 20
90.3360172683
 40
10.9359326286
100
AcDbArc
 50
250.7995614648
 51
252.4061573925
  0
ARC
  5
35D
100
AcDbEntity
  8
0
100
AcDbCircle
 62
7
  6
BYLAYER
 10
289.2917097172
 20
89.759689179
 40
10.3186390686
100
AcDbArc
 50
260.2002549283
 51
269.9649054751
  0
ARC
  5
35E
100
AcDbEntity
  8
0
100
AcDbCircle
 62
7
  6
BYLAYER
 10
289.3287142376
 20
80.1286660026
 40
9.6922485819
100
AcDbArc
 50
262.1424598425
 51
265.8915491711
  0
ARC
  5
35F
100
AcDbEntity
  8
0
100
AcDbCircle
 62
7
  6
BYLAYER
 10
289.3220054491
 20
89.046179988
 40
9.6279200586
100
AcDbArc
 50
262.1299306394
 51
265.9040783745
  0
ARC
  5
360
100
AcDbEntity
  8
0
100
AcDbCircle
 62
7
  6
BYLAYER
 10
289.2861229416
 20
88.7805411746
 40
9.3598700124
100
AcDbArc
 50
260.8441880019
 51
262.1248583204
  0
ARC
  5
361
100
AcDbEntity
  8
0
100
AcDbCircle
 62
7
  6
BYLAYER
 10
289.2653436645
 20
79.6578075523
 40
9.2171477164
100
AcDbArc
 50
258.2583178365
 51
262.1325406654
  0
ARC
  5
362
100
AcDbEntity
  8
0
100
AcDbCircle
 62
7
  6
BYLAYER
 10
289.23245769
 20
88.4601324704
 40
9.0350045621
100
AcDbArc
 50
258.2312418041
 51
260.8568592561
  0
ARC
  5
363
100
AcDbEntity
  8
0
100
AcDbCircle
 62
7
  6
BYLAYER
 10
274.2047643776
 20
95.5218983771
 40
8.1448120594
100
AcDbArc
 50
225.5687608358
 51
226.0353150421
  0
ARC
  5
364
100
AcDbEntity
  8
0
100
AcDbCircle
 62
7
  6
BYLAYER
 10
285.7034078898
 20
74.895373735
 40
5.8921111429
100
AcDbArc
 50
227.1901408703
 51
227.7872233297
  0
ARC
  5
365
100
AcDbEntity
  8
0
100
AcDbCircle
 62
7
  6
BYLAYER
 10
288.8322890428
 20
85.0030522311
 40
5.5946379324
100
AcDbArc
 50
281.2363039555
 51
281.369076955
  0
ARC
  5
366
100
AcDbEntity
  8
0
100
AcDbCircle
 62
7
  6
BYLAYER
 10
288.9984678755
 20
75.5333058778
 40
5.0850371384
100
AcDbArc
 50
265.8934099525
 51
273.2346131221
  0
ARC
  5
367
100
AcDbEntity
  8
0
100
AcDbCircle
 62
7
  6
BYLAYER
 10
288.9984678755
 20
84.5148324661
 40
5.0850371382
100
AcDbArc
 50
265.8934099525
 51
273.2346131222
  0
ARC
  5
368
100
AcDbEntity
  8
0
100
AcDbCircle
 62
7
  6
BYLAYER
 10
289.0048518646
 20
84.4114193403
 40
4.9814285788
100
AcDbArc
 50
273.228416286
 51
277.6302902745
  0
ARC
  5
369
100
AcDbEntity
  8
0
100
AcDbCircle
 62
7
  6
BYLAYER
 10
289.023276414
 20
84.258002539
 40
4.8269242512
100
AcDbArc
 50
277.6553281543
 51
278.0629868615
  0
ARC
  5
36A
100
AcDbEntity
  8
0
100
AcDbCircle
 62
7
  6
BYLAYER
 10
289.0396708779
 20
84.1479644168
 40
4.7156744669
100
AcDbArc
 50
278.0532878502
 51
280.7893245782
  0
ARC
  5
36B
100
AcDbEntity
  8
0
100
AcDbCircle
 62
7
  6
BYLAYER
 10
286.5107483517
 20
75.0103797573
 40
4.2843155428
100
AcDbArc
 50
272.1528970085
 51
274.503578467
  0
ARC
  5
36C
100
AcDbEntity
  8
0
100
AcDbCircle
 62
7
  6
BYLAYER
 10
286.6476088555
 20
72.7383904687
 40
2.1955354809
100
AcDbArc
 50
287.1281095591
 51
289.7626877812
  0
ARC
  5
36D
100
AcDbEntity
  8
0
100
AcDbCircle
 62
7
  6
BYLAYER
 10
285.0683557321
 20
72.2507109363
 40
1.0752584593
100
AcDbArc
 50
207.6219571102
 51
210.0957477924
  0
ARC
  5
36E
100
AcDbEntity
  8
0
100
AcDbCircle
 62
7
  6
BYLAYER
 10
284.9821595549
 20
81.041621715
 40
0.6195139816
100
AcDbArc
 50
280.5885571767
 51
282.0627860268
  0
ARC
  5
36F
100
AcDbEntity
  8
0
100
AcDbCircle
 62
7
  6
BYLAYER
 10
284.9913695645
 20
81.0010487645
 40
0.5779124164
100
AcDbArc
 50
282.0104813052
 51
287.3048665016
  0
ARC
  5
370
100
AcDbEntity
  8
0
100
AcDbCircle
 62
7
  6
BYLAYER
 10
285.4223711248
 20
79.9048211585
 40
0.5698967281
100
AcDbArc
 50
69.6208121726
 51
71.0467803879
  0
ARC
  5
371
100
AcDbEntity
  8
0
100
AcDbCircle
 62
7
  6
BYLAYER
 10
286.14603992
 20
80.3841442211
 40
0.4142444877
100
AcDbArc
 50
242.5271917986
 51
245.0992784351
  0
ARC
  5
372
100
AcDbEntity
  8
0
100
AcDbCircle
 62
7
  6
BYLAYER
 10
286.1298053075
 20
80.3531508666
 40
0.3792567977
100
AcDbArc
 50
239.0006457927
 51
242.5431668619
  0
ARC
  5
373
100
AcDbEntity
  8
0
100
AcDbCircle
 62
7
  6
BYLAYER
 10
294.5937254953
 20
96.2510573987
 40
26.6561992809
100
AcDbArc
 50
248.1565663156
 51
248.319071586
  0
ARC
  5
374
100
AcDbEntity
  8
0
100
AcDbCircle
 62
7
  6
BYLAYER
 10
294.5481085698
 20
96.1372578139
 40
26.533597285
100
AcDbArc
 50
247.9935613293
 51
248.1565667981
  0
ARC
  5
375
100
AcDbEntity
  8
0
100
AcDbCircle
 62
7
  6
BYLAYER
 10
289.9900293853
 20
91.8472710452
 40
12.5055604645
100
AcDbArc
 50
256.6034317661
 51
257.9985033051
  0
ARC
  5
376
100
AcDbEntity
  8
0
100
AcDbCircle
 62
7
  6
BYLAYER
 10
289.9476646677
 20
82.6738682887
 40
12.3090691871
100
AcDbArc
 50
254.5301289395
 51
258.0056740375
  0
ARC
  5
377
100
AcDbEntity
  8
0
100
AcDbCircle
 62
7
  6
BYLAYER
 10
304.6798074102
 20
89.4999992473
 40
1.5513144993
100
AcDbArc
 50
268.2059676782
 51
275.5606159057
  0
ARC
  5
378
100
AcDbEntity
  8
0
100
AcDbCircle
 62
7
  6
BYLAYER
 10
304.6769702212
 20
89.460193824
 40
1.5082904023
100
AcDbArc
 50
260.1274161975
 51
268.2647156569
  0
ARC
  5
379
100
AcDbEntity
  8
0
100
AcDbCircle
 62
7
  6
BYLAYER
 10
304.6756543043
 20
89.4443741355
 40
1.4955885746
100
AcDbArc
 50
260.0740424864
 51
268.2982804432
  0
ARC
  5
37A
100
AcDbEntity
  8
0
100
AcDbCircle
 62
7
  6
BYLAYER
 10
305.341705448
 20
80.45773611
 40
0.9928046467
100
AcDbArc
 50
350.3631012306
 51
359.9687753311
  0
ARC
  5
37B
100
AcDbEntity
  8
0
100
AcDbCircle
 62
7
  6
BYLAYER
 10
291.2559112542
 20
80.389537287
 40
0.3238452079
100
AcDbArc
 50
342.7493656013
 51
343.6478699595
  0
ARC
  5
37C
100
AcDbEntity
  8
0
100
AcDbCircle
 62
7
  6
BYLAYER
 10
301.4996004795
 20
112.4632309346
 40
44.277993946
100
AcDbArc
 50
244.5458870226
 51
246.8775999189
  0
ARC
  5
37D
100
AcDbEntity
  8
0
100
AcDbCircle
 62
7
  6
BYLAYER
 10
301.2919610634
 20
120.9846357658
 40
43.7732965635
100
AcDbArc
 50
244.5324430423
 51
246.8910438996
  0
ARC
  5
37E
100
AcDbEntity
  8
0
100
AcDbCircle
 62
7
  6
BYLAYER
 10
300.3024510354
 20
109.9224164958
 40
41.4692978142
100
AcDbArc
 50
242.5147933693
 51
244.5305923486
  0
ARC
  5
37F
100
AcDbEntity
  8
0
100
AcDbCircle
 62
7
  6
BYLAYER
 10
299.9808570683
 20
118.2576375846
 40
40.7475106223
100
AcDbArc
 50
242.0737344948
 51
244.548041821
  0
ARC
  5
380
100
AcDbEntity
  8
0
100
AcDbCircle
 62
7
  6
BYLAYER
 10
299.5214384806
 20
105.949153065
 40
39.7570767298
100
AcDbArc
 50
242.0664984747
 51
242.4998290462
  0
ARC
  5
381
100
AcDbEntity
  8
0
100
AcDbCircle
 62
7
  6
BYLAYER
 10
294.593725496
 20
105.2325839889
 40
26.6561992828
100
AcDbArc
 50
248.1565663156
 51
248.319071586
  0
ARC
  5
382
100
AcDbEntity
  8
0
100
AcDbCircle
 62
7
  6
BYLAYER
 10
294.5481085579
 20
105.1187843726
 40
26.5335972531
100
AcDbArc
 50
247.9935613293
 51
248.1565667982
  0
ARC
  5
383
100
AcDbEntity
  8
0
100
AcDbCircle
 62
7
  6
BYLAYER
 10
351.5752729603
 20
219.0286040515
 40
153.9556677667
100
AcDbArc
 50
241.2778911672
 51
242.6722721269
  0
ARC
  5
384
100
AcDbEntity
  8
0
100
AcDbCircle
 62
7
  6
BYLAYER
 10
351.4534348293
 20
207.3512589252
 40
153.6809126927
100
AcDbArc
 50
240.5825141155
 51
242.6704691288
  0
ARC
  5
385
100
AcDbEntity
  8
0
100
AcDbCircle
 62
7
  6
BYLAYER
 10
350.136593376
 20
216.3900332458
 40
150.9503701172
100
AcDbArc
 50
241.1341218606
 51
241.275488097
  0
ARC
  5
386
100
AcDbEntity
  8
0
100
AcDbCircle
 62
7
  6
BYLAYER
 10
349.6236166627
 20
215.4610015098
 40
149.8891229585
100
AcDbArc
 50
240.851312492
 51
241.0897257228
  0
ARC
  5
387
100
AcDbEntity
  8
0
100
AcDbCircle
 62
7
  6
BYLAYER
 10
346.7582399199
 20
198.9695091914
 40
144.0737381034
100
AcDbArc
 50
238.3921306864
 51
240.571758467
  0
ARC
  5
388
100
AcDbEntity
  8
0
100
AcDbCircle
 62
7
  6
BYLAYER
 10
345.1432698113
 20
207.7012548248
 40
140.9284717403
100
AcDbArc
 50
238.3761693294
 51
239.7097421113
  0
ARC
  5
389
100
AcDbEntity
  8
0
100
AcDbCircle
 62
7
  6
BYLAYER
 10
283.0670614715
 20
704.6196412665
 40
34.5242599682
100
AcDbArc
 50
57.3699120312
 51
57.8459914418
  0
ARC
  5
38A
100
AcDbEntity
  8
0
100
AcDbCircle
 62
7
  6
BYLAYER
 10
283.9482806571
 20
703.5208182094
 40
32.911516308
100
AcDbArc
 50
55.3623640114
 51
56.9246308819
  0
ARC
  5
38B
100
AcDbEntity
  8
0
100
AcDbCircle
 62
7
  6
BYLAYER
 10
283.2886879561
 20
723.0948853038
 40
16.3259819013
100
AcDbArc
 50
69.4666022441
 51
69.9534449276
  0
ARC
  5
38C
100
AcDbEntity
  8
0
100
AcDbCircle
 62
7
  6
BYLAYER
 10
289.4690482361
 20
730.2030303014
 40
13.3208872752
100
AcDbArc
 50
247.4298569172
 51
248.5866844904
  0
ARC
  5
38D
100
AcDbEntity
  8
0
100
AcDbCircle
 62
7
  6
BYLAYER
 10
289.469048235
 20
727.7535230474
 40
13.3208872724
100
AcDbArc
 50
247.4298569171
 51
248.5866844904
  0
ARC
  5
38E
100
AcDbEntity
  8
0
100
AcDbCircle
 62
7
  6
BYLAYER
 10
289.3004100678
 20
729.7974100515
 40
12.8816076178
100
AcDbArc
 50
246.2470518463
 51
247.4300322723
  0
ARC
  5
38F
100
AcDbEntity
  8
0
100
AcDbCircle
 62
7
  6
BYLAYER
 10
289.3004100564
 20
727.3479027733
 40
12.8816075887
100
AcDbArc
 50
246.247051847
 51
247.4300322732
  0
ARC
  5
390
100
AcDbEntity
  8
0
100
AcDbCircle
 62
7
  6
BYLAYER
 10
289.6369447201
 20
727.8224082269
 40
11.1503535602
100
AcDbArc
 50
250.8090216232
 51
254.5389465113
  0
ARC
  5
391
100
AcDbEntity
  8
0
100
AcDbCircle
 62
7
  6
BYLAYER
 10
289.3027733333
 20
724.8421782362
 40
10.5705111665
100
AcDbArc
 50
266.7014904224
 51
269.9057730839
  0
ARC
  5
392
100
AcDbEntity
  8
0
100
AcDbCircle
 62
7
  6
BYLAYER
 10
289.2900505911
 20
724.6362581357
 40
10.3642002043
100
AcDbArc
 50
263.4589520595
 51
266.7062083441
  0
ARC
  5
393
100
AcDbEntity
  8
0
100
AcDbCircle
 62
7
  6
BYLAYER
 10
289.2686474714
 20
724.4374925631
 40
10.1642904534
100
AcDbArc
 50
262.8554330477
 51
263.4511810235
  0
ARC
  5
394
100
AcDbEntity
  8
0
100
AcDbCircle
 62
7
  6
BYLAYER
 10
289.2394249257
 20
724.2170554056
 40
9.9419305017
100
AcDbArc
 50
260.1310442082
 51
262.8645337417
  0
ARC
  5
395
100
AcDbEntity
  8
0
100
AcDbCircle
 62
7
  6
BYLAYER
 10
289.3287142376
 20
723.9439774486
 40
9.6922485816
100
AcDbArc
 50
262.1424598425
 51
265.8915491712
  0
ARC
  5
396
100
AcDbEntity
  8
0
100
AcDbCircle
 62
7
  6
BYLAYER
 10
289.1910051068
 20
723.9300791293
 40
9.6509019873
100
AcDbArc
 50
259.2361263877
 51
260.1222394605
  0
ARC
  5
397
100
AcDbEntity
  8
0
100
AcDbCircle
 62
7
  6
BYLAYER
 10
289.3220054491
 20
726.3294720974
 40
9.6279200588
100
AcDbArc
 50
262.1299306395
 51
265.9040783744
  0
ARC
  5
398
100
AcDbEntity
  8
0
100
AcDbCircle
 62
7
  6
BYLAYER
 10
289.1606973409
 20
723.7714701542
 40
9.4894233694
100
AcDbArc
 50
258.1030384559
 51
259.2370464966
  0
ARC
  5
399
100
AcDbEntity
  8
0
100
AcDbCircle
 62
7
  6
BYLAYER
 10
289.1111185058
 20
723.5374911482
 40
9.250249465
100
AcDbArc
 50
256.6671965003
 51
258.1047639041
  0
ARC
  5
39A
100
AcDbEntity
  8
0
100
AcDbCircle
 62
7
  6
BYLAYER
 10
289.2653436645
 20
723.4731189984
 40
9.2171477163
100
AcDbArc
 50
258.2583178365
 51
262.1325406654
  0
ARC
  5
39B
100
AcDbEntity
  8
0
100
AcDbCircle
 62
7
  6
BYLAYER
 10
289.2485069049
 20
725.825198148
 40
9.1183326335
100
AcDbArc
 50
258.2373172883
 51
262.1535412133
  0
ARC
  5
39C
100
AcDbEntity
  8
0
100
AcDbCircle
 62
7
  6
BYLAYER
 10
289.0297316164
 20
723.1970357795
 40
8.9002020389
100
AcDbArc
 50
254.5601486512
 51
256.671586422
  0
ARC
  5
39D
100
AcDbEntity
  8
0
100
AcDbCircle
 62
7
  6
BYLAYER
 10
274.4626440587
 20
730.6500176294
 40
8.5389040459
100
AcDbArc
 50
232.2863293319
 51
232.7630309725
  0
ARC
  5
39E
100
AcDbEntity
  8
0
100
AcDbCircle
 62
7
  6
BYLAYER
 10
288.9314659618
 20
722.8392725155
 40
8.5291893675
100
AcDbArc
 50
253.0309130125
 51
254.5566097426
  0
ARC
  5
39F
100
AcDbEntity
  8
0
100
AcDbCircle
 62
7
  6
BYLAYER
 10
274.3905026039
 20
730.5567356348
 40
8.4209806811
100
AcDbArc
 50
231.7875551271
 51
232.286379806
  0
ARC
  5
3A0
100
AcDbEntity
  8
0
100
AcDbCircle
 62
7
  6
BYLAYER
 10
288.7642770259
 20
722.3047017956
 40
7.9690985007
100
AcDbArc
 50
249.1903168004
 51
253.0588984522
  0
ARC
  5
3A1
100
AcDbEntity
  8
0
100
AcDbCircle
 62
7
  6
BYLAYER
 10
273.9821646928
 20
730.0518099104
 40
7.7716645177
100
AcDbArc
 50
226.5805512163
 51
231.8502486605
  0
ARC
  5
3A2
100
AcDbEntity
  8
0
100
AcDbCircle
 62
7
  6
BYLAYER
 10
289.0165956286
 20
719.5705495357
 40
5.3056812935
100
AcDbArc
 50
272.9039331831
 51
276.0064859508
  0
ARC
  5
3A3
100
AcDbEntity
  8
0
100
AcDbCircle
 62
7
  6
BYLAYER
 10
289.0394277857
 20
719.3642060175
 40
5.0980815307
100
AcDbArc
 50
275.9939569557
 51
279.9997160313
  0
ARC
  5
3A4
100
AcDbEntity
  8
0
100
AcDbCircle
 62
7
  6
BYLAYER
 10
288.9984678755
 20
719.348617324
 40
5.0850371384
100
AcDbArc
 50
265.8934099525
 51
273.2346131222
  0
ARC
  5
3A5
100
AcDbEntity
  8
0
100
AcDbCircle
 62
7
  6
BYLAYER
 10
288.9984678755
 20
721.7981245753
 40
5.0850371383
100
AcDbArc
 50
265.8934099525
 51
273.2346131222
  0
ARC
  5
3A6
100
AcDbEntity
  8
0
100
AcDbCircle
 62
7
  6
BYLAYER
 10
289.0785229179
 20
719.1354847967
 40
4.8660464463
100
AcDbArc
 50
280.0140184555
 51
281.8150334665
  0
ARC
  5
3A7
100
AcDbEntity
  8
0
100
AcDbCircle
 62
7
  6
BYLAYER
 10
289.1453656879
 20
718.8304812229
 40
4.5538194929
100
AcDbArc
 50
281.7775864353
 51
286.5952025228
  0
ARC
  5
3A8
100
AcDbEntity
  8
0
100
AcDbCircle
 62
7
  6
BYLAYER
 10
289.2564329823
 20
718.4501347574
 40
4.1575946465
100
AcDbArc
 50
286.6253703385
 51
289.3361534815
  0
ARC
  5
3A9
100
AcDbEntity
  8
0
100
AcDbCircle
 62
7
  6
BYLAYER
 10
286.3916172679
 20
722.1028280504
 40
3.6134855723
100
AcDbArc
 50
255.1338532774
 51
255.700751807
  0
ARC
  5
3AA
100
AcDbEntity
  8
0
100
AcDbCircle
 62
7
  6
BYLAYER
 10
286.3632683885
 20
721.99807289
 40
3.5049635943
100
AcDbArc
 50
252.9556103542
 51
255.1424160593
  0
ARC
  5
3AB
100
AcDbEntity
  8
0
100
AcDbCircle
 62
7
  6
BYLAYER
 10
285.9581181882
 20
715.0195361011
 40
0.1327400951
100
AcDbArc
 50
180.0107661321
 51
186.2694603927
  0
ARC
  5
3AC
100
AcDbEntity
  8
0
100
AcDbCircle
 62
7
  6
BYLAYER
 10
285.8334348448
 20
735.4649648685
 40
3.4478991877
100
AcDbArc
 50
119.4411822506
 51
121.3823732567
  0
ARC
  5
3AD
100
AcDbEntity
  8
0
100
AcDbCircle
 62
7
  6
BYLAYER
 10
286.1532076662
 20
739.3109067384
 40
1.6468931864
100
AcDbArc
 50
240.0214320941
 51
243.8759279708
  0
ARC
  5
3AE
100
AcDbEntity
  8
0
100
AcDbCircle
 62
7
  6
BYLAYER
 10
289.9476646677
 20
726.489179735
 40
12.3090691871
100
AcDbArc
 50
254.5301289395
 51
258.0056740375
  0
ARC
  5
3AF
100
AcDbEntity
  8
0
100
AcDbCircle
 62
7
  6
BYLAYER
 10
289.9109259539
 20
728.7883448139
 40
12.1543753138
100
AcDbArc
 50
254.5080046591
 51
258.0277983179
  0
ARC
  5
3B0
100
AcDbEntity
  8
0
100
AcDbCircle
 62
7
  6
BYLAYER
 10
303.8443799181
 20
725.7255531232
 40
3.1552403672
100
AcDbArc
 50
296.0567315069
 51
299.2640026234
  0
ARC
  5
3B1
100
AcDbEntity
  8
0
100
AcDbCircle
 62
7
  6
BYLAYER
 10
289.7088807697
 20
717.4053742566
 40
3.0174254147
100
AcDbArc
 50
297.6633813603
 51
300.671800189
  0
ARC
  5
3B2
100
AcDbEntity
  8
0
100
AcDbCircle
 62
7
  6
BYLAYER
 10
301.1721509566
 20
727.0416364409
 40
2.8193911166
100
AcDbArc
 50
122.2484353753
 51
123.331003617
  0
ARC
  5
3B3
100
AcDbEntity
  8
0
100
AcDbCircle
 62
7
  6
BYLAYER
 10
289.8552455457
 20
717.1595655578
 40
2.7313410019
100
AcDbArc
 50
300.6613745451
 51
304.220610149
  0
ARC
  5
3B4
100
AcDbEntity
  8
0
100
AcDbCircle
 62
7
  6
BYLAYER
 10
304.4299726974
 20
724.856941544
 40
2.105370883
100
AcDbArc
 50
309.6755921375
 51
313.1556506618
  0
ARC
  5
3B5
100
AcDbEntity
  8
0
100
AcDbCircle
 62
7
  6
BYLAYER
 10
304.5838776469
 20
724.6940359407
 40
1.8812634025
100
AcDbArc
 50
313.1297999183
 51
318.06421859
  0
ARC
  5
3B6
100
AcDbEntity
  8
0
100
AcDbCircle
 62
7
  6
BYLAYER
 10
304.6796284968
 20
724.3397413272
 40
1.5572670947
100
AcDbArc
 50
268.2214577322
 51
272.3798141205
  0
ARC
  5
3B7
100
AcDbEntity
  8
0
100
AcDbCircle
 62
7
  6
BYLAYER
 10
304.6807686499
 20
724.3209611194
 40
1.5384557831
100
AcDbArc
 50
272.3664311761
 51
275.8280728489
  0
ARC
  5
3B8
100
AcDbEntity
  8
0
100
AcDbCircle
 62
7
  6
BYLAYER
 10
304.6790711946
 20
724.3198521097
 40
1.5373701633
100
AcDbArc
 50
264.3024162139
 51
268.219212044
  0
ARC
  5
3B9
100
AcDbEntity
  8
0
100
AcDbCircle
 62
7
  6
BYLAYER
 10
304.673295325
 20
724.2658141702
 40
1.4830258181
100
AcDbArc
 50
260.4358933312
 51
264.3171965028
  0
ARC
  5
3BA
100
AcDbEntity
  8
0
100
AcDbCircle
 62
7
  6
BYLAYER
 10
304.6888266103
 20
724.245851903
 40
1.462916617
100
AcDbArc
 50
275.812820312
 51
280.7048667524
  0
ARC
  5
3BB
100
AcDbEntity
  8
0
100
AcDbCircle
 62
7
  6
BYLAYER
 10
304.6553063105
 20
724.1607482268
 40
1.3764313936
100
AcDbArc
 50
255.8269294615
 51
260.4476385413
  0
ARC
  5
3BC
100
AcDbEntity
  8
0
100
AcDbCircle
 62
7
  6
BYLAYER
 10
304.9869245146
 20
724.3793510356
 40
1.3687477814
100
AcDbArc
 50
327.853173421
 51
331.977039691
  0
ARC
  5
3BD
100
AcDbEntity
  8
0
100
AcDbCircle
 62
7
  6
BYLAYER
 10
304.7084360162
 20
724.1417499741
 40
1.3569839246
100
AcDbArc
 50
280.7077715888
 51
284.4686885676
  0
ARC
  5
3BE
100
AcDbEntity
  8
0
100
AcDbCircle
 62
7
  6
BYLAYER
 10
305.0916227767
 20
724.3244365365
 40
1.2505243873
100
AcDbArc
 50
331.9443440174
 51
338.9698834485
  0
ARC
  5
3BF
100
AcDbEntity
  8
0
100
AcDbCircle
 62
7
  6
BYLAYER
 10
304.6232145272
 20
724.0343039896
 40
1.2459783323
100
AcDbArc
 50
251.4017702881
 51
255.8340496525
  0
ARC
  5
3C0
100
AcDbEntity
  8
0
100
AcDbCircle
 62
7
  6
BYLAYER
 10
305.171546471
 20
724.2925219068
 40
1.1644719429
100
AcDbArc
 50
339.0243785462
 51
342.455626907
  0
ARC
  5
3C1
100
AcDbEntity
  8
0
100
AcDbCircle
 62
7
  6
BYLAYER
 10
305.2332258376
 20
724.2737933955
 40
1.1000163098
100
AcDbArc
 50
342.4173141447
 51
351.2707207588
  0
ARC
  5
3C2
100
AcDbEntity
  8
0
100
AcDbCircle
 62
7
  6
BYLAYER
 10
305.334985975
 20
726.7209119513
 40
0.9995245796
100
AcDbArc
 50
0.0631587783
 51
12.2064846167
  0
ARC
  5
3C3
100
AcDbEntity
  8
0
100
AcDbCircle
 62
7
  6
BYLAYER
 10
305.341705448
 20
724.2730475562
 40
0.9928046467
100
AcDbArc
 50
350.3631012306
 51
359.9687753312
  0
ARC
  5
3C4
100
AcDbEntity
  8
0
100
AcDbCircle
 62
7
  6
BYLAYER
 10
305.341705448
 20
726.7225548076
 40
0.9928046467
100
AcDbArc
 50
350.3631012304
 51
359.9687753312
  0
ARC
  5
3C5
100
AcDbEntity
  8
0
100
AcDbCircle
 62
7
  6
BYLAYER
 10
304.8017108874
 20
728.9127322248
 40
0.3229316841
100
AcDbArc
 50
228.1843911071
 51
233.5385266576
  0
ARC
  5
3C6
100
AcDbEntity
  8
0
100
AcDbCircle
 62
7
  6
BYLAYER
 10
291.2776591684
 20
715.2190356152
 40
0.3016210439
100
AcDbArc
 50
358.3142911499
 51
359.9822719367
  0
ARC
  5
3C7
100
AcDbEntity
  8
0
100
AcDbCircle
 62
7
  6
BYLAYER
 10
301.6310195753
 20
756.5516346933
 40
44.5807581429
100
AcDbArc
 50
244.5499429967
 51
246.8600959477
  0
ARC
  5
3C8
100
AcDbEntity
  8
0
100
AcDbCircle
 62
7
  6
BYLAYER
 10
301.4238240693
 20
758.5421475572
 40
44.0772687275
100
AcDbArc
 50
244.5367468767
 51
246.8732920673
  0
ARC
  5
3C9
100
AcDbEntity
  8
0
100
AcDbCircle
 62
7
  6
BYLAYER
 10
300.3414875981
 20
753.8205595759
 40
41.5605639488
100
AcDbArc
 50
242.1167923645
 51
244.5372419397
  0
ARC
  5
3CA
100
AcDbEntity
  8
0
100
AcDbCircle
 62
7
  6
BYLAYER
 10
300.2641238257
 20
756.1195808919
 40
41.3914352287
100
AcDbArc
 50
242.5679830769
 51
244.5443728248
  0
ARC
  5
3CB
100
AcDbEntity
  8
0
100
AcDbCircle
 62
7
  6
BYLAYER
 10
299.6693133548
 20
757.416538718
 40
40.0944540813
100
AcDbArc
 50
242.0949928533
 51
242.5636304751
  0
ARC
  5
3CC
100
AcDbEntity
  8
0
100
AcDbCircle
 62
7
  6
BYLAYER
 10
294.5937255214
 20
740.0663689105
 40
26.6561993515
100
AcDbArc
 50
248.1565663159
 51
248.3190715858
  0
ARC
  5
3CD
100
AcDbEntity
  8
0
100
AcDbCircle
 62
7
  6
BYLAYER
 10
294.5937254897
 20
742.5158760825
 40
26.656199266
100
AcDbArc
 50
248.1565663156
 51
248.3190715861
  0
ARC
  5
3CE
100
AcDbEntity
  8
0
100
AcDbCircle
 62
7
  6
BYLAYER
 10
294.5481085603
 20
739.9525692365
 40
26.5335972596
100
AcDbArc
 50
247.9935613291
 51
248.1565667983
  0
ARC
  5
3CF
100
AcDbEntity
  8
0
100
AcDbCircle
 62
7
  6
BYLAYER
 10
294.5481085476
 20
742.4020764562
 40
26.5335972255
100
AcDbArc
 50
247.993561329
 51
248.1565667982
  0
ARC
  5
3D0
100
AcDbEntity
  8
0
100
AcDbCircle
 62
7
  6
BYLAYER
 10
301.3061588599
 20
733.0520903549
 40
0.7365192204
100
AcDbArc
 50
59.1144307705
 51
60.0022232268
  0
ARC
  5
3D1
100
AcDbEntity
  8
0
100
AcDbCircle
 62
7
  6
BYLAYER
 10
352.1059779097
 20
854.7711135614
 40
155.0066204304
100
AcDbArc
 50
240.5838250067
 51
242.6553020412
  0
ARC
  5
3D2
100
AcDbEntity
  8
0
100
AcDbCircle
 62
7
  6
BYLAYER
 10
351.3386787841
 20
858.2498791301
 40
153.3926208715
100
AcDbArc
 50
240.572925741
 51
242.6662013176
  0
ARC
  5
3D3
100
AcDbEntity
  8
0
100
AcDbCircle
 62
7
  6
BYLAYER
 10
346.6037855929
 20
849.9184595591
 40
143.8097839474
100
AcDbArc
 50
238.399685319
 51
240.585137509
  0
ARC
  5
3D4
100
AcDbEntity
  8
0
100
AcDbCircle
 62
7
  6
BYLAYER
 10
335.946391999
 20
827.709328283
 40
123.5200354879
100
AcDbArc
 50
244.3599745238
 51
245.1928271627
  0
ARC
  5
3D5
100
AcDbEntity
  8
0
100
AcDbCircle
 62
7
  6
BYLAYER
 10
335.1670030224
 20
826.07738075
 40
121.7115313249
100
AcDbArc
 50
244.2055702112
 51
244.3583145059
  0
ARC
  5
3D6
100
AcDbEntity
  8
0
100
AcDbCircle
 62
7
  6
BYLAYER
 10
334.5113617708
 20
824.726058815
 40
120.2095555957
100
AcDbArc
 50
243.5238040674
 51
244.2066639945
  0
ARC
  5
3D7
100
AcDbEntity
  8
0
100
AcDbCircle
 62
7
  6
BYLAYER
 10
332.428158142
 20
820.5812985956
 40
115.5707541938
100
AcDbArc
 50
241.5738520499
 51
243.5321699795
  0
ARC
  5
3D8
100
AcDbEntity
  8
0
100
AcDbCircle
 62
7
  6
BYLAYER
 10
330.7105848694
 20
817.36872679
 40
111.9279103263
100
AcDbArc
 50
241.4179039988
 51
241.5642393424
  0
ARC
  5
3D9
100
AcDbEntity
  8
0
100
AcDbCircle
 62
7
  6
BYLAYER
 10
330.0288470318
 20
816.1222095708
 40
110.5071477507
100
AcDbArc
 50
240.7100162145
 51
241.4190967819
  0
ARC
  5
3DA
100
AcDbEntity
  8
0
100
AcDbCircle
 62
7
  6
BYLAYER
 10
328.1928771531
 20
812.8681649028
 40
106.7709059108
100
AcDbArc
 50
239.1394426027
 51
240.7149927072
  0
ARC
  5
3DB
100
AcDbEntity
  8
0
100
AcDbCircle
 62
7
  6
BYLAYER
 10
326.2978163981
 20
809.6806250172
 40
103.0625885594
100
AcDbArc
 50
238.4568438293
 51
239.0578313045
  0
ARC
  5
3DC
100
AcDbEntity
  8
0
100
AcDbCircle
 62
7
  6
BYLAYER
 10
325.2102317105
 20
807.9105389976
 40
100.9850794335
100
AcDbArc
 50
237.7027514871
 51
238.4573466127
  0
ARC
  5
3DD
100
AcDbEntity
  8
0
100
AcDbCircle
 62
7
  6
BYLAYER
 10
324.3081291899
 20
806.4798771249
 40
99.2937548805
100
AcDbArc
 50
237.3352080684
 51
237.7016646564
  0
ARC
  5
3DE
100
AcDbEntity
  8
0
100
AcDbCircle
 62
7
  6
BYLAYER
 10
323.7121123729
 20
805.5502555836
 40
98.1894758143
100
AcDbArc
 50
236.9650147914
 51
237.3352163043
  0
SPLINE
  5
3DF
100
AcDbEntity
  8
0
100
AcDbSpline
 62
7
  6
BYLAYER
 70
0
 71
3
 72
9
 73
5
 74
0
 42
0.0000001
 43
0.0000001
 44
0.0000000001
 40
0.0
 40
0.0
 40
0.0
 40
0.0
 40
0.2411856886
 40
1.0
 40
1.0
 40
1.0
 40
1.0
 10
269.7740102163
 20
79.7898488197
 30
0.0
 10
269.7948593423
 20
79.7778607829
 30
0.0
 10
269.8824063818
 20
79.7300861859
 30
0.0
 10
269.9739970278
 20
79.6898315918
 30
0.0
 10
270.0448350276
 20
79.6632375651
 30
0.0
  0
SPLINE
  5
3E0
100
AcDbEntity
  8
0
100
AcDbSpline
 62
7
  6
BYLAYER
 70
0
 71
3
 72
9
 73
5
 74
0
 42
0.0000001
 43
0.0000001
 44
0.0000000001
 40
0.0
 40
0.0
 40
0.0
 40
0.0
 40
0.2408001262
 40
1.0
 40
1.0
 40
1.0
 40
1.0
 10
269.5737858334
 20
79.9296487356
 30
0.0
 10
269.5887421745
 20
79.9169561735
 30
0.0
 10
269.6521969006
 20
79.865835517
 30
0.0
 10
269.7205001933
 20
79.820859015
 30
0.0
 10
269.7740102163
 20
79.7898488197
 30
0.0
  0
SPLINE
  5
3E1
100
AcDbEntity
  8
0
100
AcDbSpline
 62
7
  6
BYLAYER
 70
0
 71
3
 72
9
 73
5
 74
0
 42
0.0000001
 43
0.0000001
 44
0.0000000001
 40
0.0
 40
0.0
 40
0.0
 40
0.0
 40
0.2324918756
 40
1.0
 40
1.0
 40
1.0
 40
1.0
 10
268.6928818522
 20
80.5331433596
 30
0.0
 10
268.7242277264
 20
80.4949117869
 30
0.0
 10
268.8682342829
 20
80.337992073
 30
0.0
 10
269.0434110319
 20
80.211666339
 30
0.0
 10
269.1847552887
 20
80.1300630403
 30
0.0
  0
SPLINE
  5
3E2
100
AcDbEntity
  8
0
100
AcDbSpline
 62
7
  6
BYLAYER
 70
0
 71
3
 72
9
 73
5
 74
0
 42
0.0000001
 43
0.0000001
 44
0.0000000001
 40
0.0
 40
0.0
 40
0.0
 40
0.0
 40
0.2449366897
 40
1.0
 40
1.0
 40
1.0
 40
1.0
 10
269.5845378676
 20
79.942572418
 30
0.0
 10
269.6132189729
 20
79.9317468603
 30
0.0
 10
269.7309679822
 20
79.8892914006
 30
0.0
 10
269.8511466446
 20
79.8536405686
 30
0.0
 10
269.9427218912
 20
79.8302986584
 30
0.0
  0
SPLINE
  5
3E3
100
AcDbEntity
  8
0
100
AcDbSpline
 62
7
  6
BYLAYER
 70
0
 71
3
 72
11
 73
7
 74
0
 42
0.0000001
 43
0.0000001
 44
0.0000000001
 40
0.0
 40
0.0
 40
0.0
 40
0.0
 40
0.2304168006
 40
0.4846814931
 40
0.7470378423
 40
1.0
 40
1.0
 40
1.0
 40
1.0
 10
285.3304241695
 20
70.8085522203
 30
0.0
 10
285.4647773559
 20
70.7313004952
 30
0.0
 10
285.7707266533
 20
70.6085158992
 30
0.0
 10
286.2683239062
 20
70.5209961564
 30
0.0
 10
286.7885742201
 20
70.5243817778
 30
0.0
 10
287.13162931
 20
70.5900808094
 30
0.0
 10
287.2942142668
 20
70.6402299672
 30
0.0
  0
SPLINE
  5
3E4
100
AcDbEntity
  8
0
100
AcDbSpline
 62
7
  6
BYLAYER
 70
0
 71
3
 72
9
 73
5
 74
0
 42
0.0000001
 43
0.0000001
 44
0.0000000001
 40
0.0
 40
0.0
 40
0.0
 40
0.0
 40
0.236593015
 40
1.0
 40
1.0
 40
1.0
 40
1.0
 10
285.0623163978
 20
71.011061256
 30
0.0
 10
285.0810028987
 20
70.9922106682
 30
0.0
 10
285.1631466358
 20
70.9156739109
 30
0.0
 10
285.2563228514
 20
70.8514955086
 30
0.0
 10
285.3304241695
 20
70.8085522203
 30
0.0
  0
SPLINE
  5
3E5
100
AcDbEntity
  8
0
100
AcDbSpline
 62
7
  6
BYLAYER
 70
0
 71
3
 72
9
 73
5
 74
0
 42
0.0000001
 43
0.0000001
 44
0.0000000001
 40
0.0
 40
0.0
 40
0.0
 40
0.0
 40
0.2436059661
 40
1.0
 40
1.0
 40
1.0
 40
1.0
 10
284.1380543305
 20
71.7115263146
 30
0.0
 10
284.1467407966
 20
71.6965334502
 30
0.0
 10
284.1838500432
 20
71.6358340761
 30
0.0
 10
284.22655523
 20
71.5786073933
 30
0.0
 10
284.2612428727
 20
71.5374810482
 30
0.0
  0
SPLINE
  5
3E6
100
AcDbEntity
  8
0
100
AcDbSpline
 62
7
  6
BYLAYER
 70
0
 71
3
 72
9
 73
5
 74
0
 42
0.0000001
 43
0.0000001
 44
0.0000000001
 40
0.0
 40
0.0
 40
0.0
 40
0.0
 40
0.2330500097
 40
1.0
 40
1.0
 40
1.0
 40
1.0
 10
284.2612428727
 20
71.5374810482
 30
0.0
 10
284.2922655954
 20
71.5006999036
 30
0.0
 10
284.4337915965
 20
71.3499673165
 30
0.0
 10
284.6040333695
 20
71.2279400826
 30
0.0
 10
284.7411692419
 20
71.1487664409
 30
0.0
  0
SPLINE
  5
3E7
100
AcDbEntity
  8
0
100
AcDbSpline
 62
7
  6
BYLAYER
 70
0
 71
3
 72
9
 73
5
 74
0
 42
0.0000001
 43
0.0000001
 44
0.0000000001
 40
0.0
 40
0.0
 40
0.0
 40
0.0
 40
0.2427979588
 40
1.0
 40
1.0
 40
1.0
 40
1.0
 10
284.7411692419
 20
71.1487664409
 30
0.0
 10
284.7654839266
 20
71.1347286687
 30
0.0
 10
284.8666632779
 20
71.0787146675
 30
0.0
 10
284.9716732393
 20
71.02970408
 30
0.0
 10
285.0525769023
 20
70.9962193229
 30
0.0
  0
SPLINE
  5
3E8
100
AcDbEntity
  8
0
100
AcDbSpline
 62
7
  6
BYLAYER
 70
0
 71
3
 72
9
 73
5
 74
0
 42
0.0000001
 43
0.0000001
 44
0.0000000001
 40
0.0
 40
0.0
 40
0.0
 40
0.0
 40
0.4840966249
 40
1.0
 40
1.0
 40
1.0
 40
1.0
 10
285.0525769023
 20
70.9962193229
 30
0.0
 10
285.298608383
 20
70.8943907524
 30
0.0
 10
285.8353065223
 20
70.7511029339
 30
0.0
 10
286.3881286809
 20
70.7184113787
 30
0.0
 10
286.6716942342
 20
70.7290883525
 30
0.0
  0
SPLINE
  5
3E9
100
AcDbEntity
  8
0
100
AcDbSpline
 62
7
  6
BYLAYER
 70
0
 71
3
 72
20
 73
16
 74
0
 42
0.0000001
 43
0.0000001
 44
0.0000000001
 40
0.0
 40
0.0
 40
0.0
 40
0.0
 40
0.0624204004
 40
0.1287973184
 40
0.2702995827
 40
0.4173616525
 40
0.561615931
 40
0.630253658
 40
0.6953797398
 40
0.7563633875
 40
0.8128340149
 40
0.8647650981
 40
0.9125678349
 40
0.9571681187
 40
1.0
 40
1.0
 40
1.0
 40
1.0
 10
293.5799613192
 20
62.7067441648
 30
0.0
 10
293.3643905503
 20
62.5822850663
 30
0.0
 10
292.9024085358
 20
62.3544794913
 30
0.0
 10
291.8874184931
 20
61.9868714534
 30
0.0
 10
290.4906876233
 20
61.7073282337
 30
0.0
 10
288.7581684603
 20
61.6595841933
 30
0.0
 10
287.328393938
 20
61.8600956058
 30
0.0
 10
286.2615602248
 20
62.1674341577
 30
0.0
 10
285.539772439
 20
62.4582343596
 30
0.0
 10
284.8985557105
 20
62.8069822333
 30
0.0
 10
284.3512910724
 20
63.20687513
 30
0.0
 10
283.9096418955
 20
63.6503786063
 30
0.0
 10
283.5837913774
 20
64.1296602928
 30
0.0
 10
283.3829780684
 20
64.6352384488
 30
0.0
 10
283.3373117719
 20
64.9853842387
 30
0.0
 10
283.3373113389
 20
65.1561886926
 30
0.0
  0
SPLINE
  5
3EA
100
AcDbEntity
  8
0
100
AcDbSpline
 62
7
  6
BYLAYER
 70
0
 71
3
 72
12
 73
8
 74
0
 42
0.0000001
 43
0.0000001
 44
0.0000000001
 40
0.0
 40
0.0
 40
0.0
 40
0.0
 40
0.1081618106
 40
0.218363006
 40
0.4513653367
 40
0.7104105363
 40
1.0
 40
1.0
 40
1.0
 40
1.0
 10
295.3372945977
 20
65.1561886913
 30
0.0
 10
295.3372948857
 20
65.0426019858
 30
0.0
 10
295.3175440204
 20
64.8128116286
 30
0.0
 10
295.1981896301
 20
64.3521263435
 30
0.0
 10
294.8917460761
 20
63.7872735304
 30
0.0
 10
294.3210467097
 20
63.1878078324
 30
0.0
 10
293.8433320998
 20
62.8588004483
 30
0.0
 10
293.5799613192
 20
62.7067441648
 30
0.0
  0
SPLINE
  5
3EB
100
AcDbEntity
  8
0
100
AcDbSpline
 62
7
  6
BYLAYER
 70
0
 71
3
 72
9
 73
5
 74
0
 42
0.0000001
 43
0.0000001
 44
0.0000000001
 40
0.0
 40
0.0
 40
0.0
 40
0.0
 40
0.2671440672
 40
1.0
 40
1.0
 40
1.0
 40
1.0
 10
285.6945787665
 20
737.9210007941
 30
0.0
 10
285.6782998095
 20
737.921000755
 30
0.0
 10
285.6175550397
 20
737.9244532385
 30
0.0
 10
285.5564769813
 20
737.9409466189
 30
0.0
 10
285.5178017663
 20
737.9632752595
 30
0.0
  0
SPLINE
  5
3EC
100
AcDbEntity
  8
0
100
AcDbSpline
 62
7
  6
BYLAYER
 70
0
 71
3
 72
9
 73
5
 74
0
 42
0.0000001
 43
0.0000001
 44
0.0000000001
 40
0.0
 40
0.0
 40
0.0
 40
0.0
 40
0.2291142508
 40
1.0
 40
1.0
 40
1.0
 40
1.0
 10
285.8713551569
 20
737.9632761094
 30
0.0
 10
285.8592564514
 20
737.9562909602
 30
0.0
 10
285.803769305
 20
737.9305153586
 30
0.0
 10
285.7415839268
 20
737.9210009071
 30
0.0
 10
285.6945787665
 20
737.9210007941
 30
0.0
  0
SPLINE
  5
3ED
100
AcDbEntity
  8
0
100
AcDbSpline
 62
7
  6
BYLAYER
 70
0
 71
3
 72
9
 73
5
 74
0
 42
0.0000001
 43
0.0000001
 44
0.0000000001
 40
0.0
 40
0.0
 40
0.0
 40
0.0
 40
0.5255663101
 40
1.0
 40
1.0
 40
1.0
 40
1.0
 10
286.5088017025
 20
738.2316605604
 30
0.0
 10
286.4553015875
 20
738.2316604318
 30
0.0
 10
286.353232558
 20
738.2205955854
 30
0.0
 10
286.2559991976
 20
738.1853491242
 30
0.0
 10
286.2141743855
 20
738.1612017018
 30
0.0
  0
SPLINE
  5
3EE
100
AcDbEntity
  8
0
100
AcDbSpline
 62
7
  6
BYLAYER
 70
0
 71
3
 72
9
 73
5
 74
0
 42
0.0000001
 43
0.0000001
 44
0.0000000001
 40
0.0
 40
0.0
 40
0.0
 40
0.0
 40
0.4744342232
 40
1.0
 40
1.0
 40
1.0
 40
1.0
 10
286.8034300361
 20
738.1612031181
 30
0.0
 10
286.7616049148
 20
738.1853503168
 30
0.0
 10
286.6643711717
 20
738.2205962949
 30
0.0
 10
286.5623018759
 20
738.231660689
 30
0.0
 10
286.5088017025
 20
738.2316605604
 30
0.0
  0
SPLINE
  5
3EF
100
AcDbEntity
  8
0
100
AcDbSpline
 62
7
  6
BYLAYER
 70
0
 71
3
 72
9
 73
5
 74
0
 42
0.0000001
 43
0.0000001
 44
0.0000000001
 40
0.0
 40
0.0
 40
0.0
 40
0.0
 40
0.2671440672
 40
1.0
 40
1.0
 40
1.0
 40
1.0
 10
287.3016905733
 20
737.9333242449
 30
0.0
 10
287.2854116163
 20
737.9333242058
 30
0.0
 10
287.2246668465
 20
737.9367766893
 30
0.0
 10
287.1635887881
 20
737.9532700697
 30
0.0
 10
287.1249135731
 20
737.9755987103
 30
0.0
  0
SPLINE
  5
3F0
100
AcDbEntity
  8
0
100
AcDbSpline
 62
7
  6
BYLAYER
 70
0
 71
3
 72
9
 73
5
 74
0
 42
0.0000001
 43
0.0000001
 44
0.0000000001
 40
0.0
 40
0.0
 40
0.0
 40
0.0
 40
0.2291142508
 40
1.0
 40
1.0
 40
1.0
 40
1.0
 10
287.4784669637
 20
737.9755995602
 30
0.0
 10
287.4663682583
 20
737.968614411
 30
0.0
 10
287.4108811118
 20
737.9428388094
 30
0.0
 10
287.3486957336
 20
737.9333243579
 30
0.0
 10
287.3016905733
 20
737.9333242449
 30
0.0
  0
SPLINE
  5
3F1
100
AcDbEntity
  8
0
100
AcDbSpline
 62
7
  6
BYLAYER
 70
0
 71
3
 72
9
 73
5
 74
0
 42
0.0000001
 43
0.0000001
 44
0.0000000001
 40
0.0
 40
0.0
 40
0.0
 40
0.0
 40
0.4492438796
 40
1.0
 40
1.0
 40
1.0
 40
1.0
 10
287.6024889275
 20
738.1069892191
 30
0.0
 10
287.602489068
 20
738.0875155934
 30
0.0
 10
287.5854675877
 20
738.0440618095
 30
0.0
 10
287.5499418227
 20
738.0168653429
 30
0.0
 10
287.5292663588
 20
738.0049284296
 30
0.0
  0
SPLINE
  5
3F2
100
AcDbEntity
  8
0
100
AcDbSpline
 62
7
  6
BYLAYER
 70
0
 71
3
 72
10
 73
6
 74
0
 42
0.0000001
 43
0.0000001
 44
0.0000000001
 40
0.0
 40
0.0
 40
0.0
 40
0.0
 40
0.547689002
 40
0.7816220466
 40
1.0
 40
1.0
 40
1.0
 40
1.0
 10
287.2077788962
 20
738.7348561093
 30
0.0
 10
287.1733197899
 20
738.7149612537
 30
0.0
 10
287.1267802908
 20
738.6783338552
 30
0.0
 10
287.0916173232
 20
738.6137087078
 30
0.0
 10
287.0857411676
 20
738.5806200649
 30
0.0
 10
287.085741282
 20
738.5647547936
 30
0.0
  0
SPLINE
  5
3F3
100
AcDbEntity
  8
0
100
AcDbSpline
 62
7
  6
BYLAYER
 70
0
 71
3
 72
9
 73
5
 74
0
 42
0.0000001
 43
0.0000001
 44
0.0000000001
 40
0.0
 40
0.0
 40
0.0
 40
0.0
 40
0.4492438796
 40
1.0
 40
1.0
 40
1.0
 40
1.0
 10
287.6238206935
 20
739.0348424913
 30
0.0
 10
287.6238208339
 20
739.0153688656
 30
0.0
 10
287.6067993537
 20
738.9719150817
 30
0.0
 10
287.5712735886
 20
738.9447186151
 30
0.0
 10
287.5505981248
 20
738.9327817018
 30
0.0
  0
SPLINE
  5
3F4
100
AcDbEntity
  8
0
100
AcDbSpline
 62
7
  6
BYLAYER
 70
0
 71
3
 72
9
 73
5
 74
0
 42
0.0000001
 43
0.0000001
 44
0.0000000001
 40
0.0
 40
0.0
 40
0.0
 40
0.0
 40
0.5507565647
 40
1.0
 40
1.0
 40
1.0
 40
1.0
 10
285.4456566225
 20
738.9450962299
 30
0.0
 10
285.4249809742
 20
738.9570330509
 30
0.0
 10
285.3894548797
 20
738.9842293072
 30
0.0
 10
285.3724327222
 20
739.027682984
 30
0.0
 10
285.3724325818
 20
739.0471566674
 30
0.0
  0
SPLINE
  5
3F5
100
AcDbEntity
  8
0
100
AcDbSpline
 62
7
  6
BYLAYER
 70
0
 71
3
 72
10
 73
6
 74
0
 42
0.0000001
 43
0.0000001
 44
0.0000000001
 40
0.0
 40
0.0
 40
0.0
 40
0.0
 40
0.2183774546
 40
0.4523105175
 40
1.0
 40
1.0
 40
1.0
 40
1.0
 10
285.931857319
 20
738.56475202
 30
0.0
 10
285.9318572046
 20
738.5806173166
 30
0.0
 10
285.9259805494
 20
738.6137059621
 30
0.0
 10
285.8908166472
 20
738.6783309052
 30
0.0
 10
285.8442766649
 20
738.7149580475
 30
0.0
 10
285.8098172512
 20
738.7348527492
 30
0.0
  0
SPLINE
  5
3F6
100
AcDbEntity
  8
0
100
AcDbSpline
 62
7
  6
BYLAYER
 70
0
 71
3
 72
9
 73
5
 74
0
 42
0.0000001
 43
0.0000001
 44
0.0000000001
 40
0.0
 40
0.0
 40
0.0
 40
0.0
 40
0.5507565647
 40
1.0
 40
1.0
 40
1.0
 40
1.0
 10
285.4670019482
 20
737.9926038847
 30
0.0
 10
285.4463262999
 20
738.0045407058
 30
0.0
 10
285.4108002053
 20
738.031736962
 30
0.0
 10
285.3937780479
 20
738.0751906389
 30
0.0
 10
285.3937779075
 20
738.0946643223
 30
0.0
  0
SPLINE
  5
3F7
100
AcDbEntity
  8
0
100
AcDbSpline
 62
7
  6
BYLAYER
 70
0
 71
3
 72
10
 73
6
 74
0
 42
0.0000001
 43
0.0000001
 44
0.0000000001
 40
0.0
 40
0.0
 40
0.0
 40
0.0
 40
0.2472503589
 40
0.495188827
 40
1.0
 40
1.0
 40
1.0
 40
1.0
 10
284.1053885019
 20
738.3956451395
 30
0.0
 10
284.1417963686
 20
738.4896386507
 30
0.0
 10
284.2345303106
 20
738.6708055782
 30
0.0
 10
284.4864708302
 20
738.9935161734
 30
0.0
 10
284.7353602903
 20
739.1835046502
 30
0.0
 10
284.9135871263
 20
739.286406904
 30
0.0
  0
SPLINE
  5
3F8
100
AcDbEntity
  8
0
100
AcDbSpline
 62
7
  6
BYLAYER
 70
0
 71
3
 72
10
 73
6
 74
0
 42
0.0000001
 43
0.0000001
 44
0.0000000001
 40
0.0
 40
0.0
 40
0.0
 40
0.0
 40
0.5045873123
 40
0.7525330691
 40
1.0
 40
1.0
 40
1.0
 40
1.0
 10
288.1040114746
 20
739.286406904
 30
0.0
 10
288.2921028935
 20
739.1778091678
 30
0.0
 10
288.5540465732
 20
738.974837543
 30
0.0
 10
288.8114851571
 20
738.6272080182
 30
0.0
 10
288.9018162463
 20
738.4318435987
 30
0.0
 10
288.9355902049
 20
738.3308219805
 30
0.0
  0
SPLINE
  5
3F9
100
AcDbEntity
  8
0
100
AcDbSpline
 62
7
  6
BYLAYER
 70
0
 71
3
 72
11
 73
7
 74
0
 42
0.0000001
 43
0.0000001
 44
0.0000000001
 40
0.0
 40
0.0
 40
0.0
 40
0.0
 40
0.2433553771
 40
0.5000066983
 40
0.7566556155
 40
1.0
 40
1.0
 40
1.0
 40
1.0
 10
284.9135871263
 20
739.286406904
 30
0.0
 10
285.1463426847
 20
739.4207922304
 30
0.0
 10
285.6715933189
 20
739.6179950453
 30
0.0
 10
286.5087923136
 20
739.7116849172
 30
0.0
 10
287.3459788093
 20
739.6179969629
 30
0.0
 10
287.8712172682
 20
739.4208076618
 30
0.0
 10
288.1039652929
 20
739.2864335671
 30
0.0
  0
SPLINE
  5
3FA
100
AcDbEntity
  8
0
100
AcDbSpline
 62
7
  6
BYLAYER
 70
0
 71
3
 72
9
 73
5
 74
0
 42
0.0000001
 43
0.0000001
 44
0.0000000001
 40
0.0
 40
0.0
 40
0.0
 40
0.0
 40
0.2291142508
 40
1.0
 40
1.0
 40
1.0
 40
1.0
 10
285.4964545456
 20
739.1785463263
 30
0.0
 10
285.5085532511
 20
739.1855314755
 30
0.0
 10
285.5640403976
 20
739.2113070772
 30
0.0
 10
285.6262257757
 20
739.2208215286
 30
0.0
 10
285.6732309361
 20
739.2208216416
 30
0.0
  0
SPLINE
  5
3FB
100
AcDbEntity
  8
0
100
AcDbSpline
 62
7
  6
BYLAYER
 70
0
 71
3
 72
9
 73
5
 74
0
 42
0.0000001
 43
0.0000001
 44
0.0000000001
 40
0.0
 40
0.0
 40
0.0
 40
0.0
 40
0.4492438796
 40
1.0
 40
1.0
 40
1.0
 40
1.0
 10
285.3724325818
 20
739.0471566674
 30
0.0
 10
285.3724324414
 20
739.0666302931
 30
0.0
 10
285.3894539216
 20
739.110084077
 30
0.0
 10
285.4249796867
 20
739.1372805436
 30
0.0
 10
285.4456551505
 20
739.149217457
 30
0.0
  0
SPLINE
  5
3FC
100
AcDbEntity
  8
0
100
AcDbSpline
 62
7
  6
BYLAYER
 70
0
 71
3
 72
9
 73
5
 74
0
 42
0.0000001
 43
0.0000001
 44
0.0000000001
 40
0.0
 40
0.0
 40
0.0
 40
0.0
 40
0.5507565647
 40
1.0
 40
1.0
 40
1.0
 40
1.0
 10
287.5292648868
 20
738.2090496566
 30
0.0
 10
287.5499405351
 20
738.1971128356
 30
0.0
 10
287.5854666297
 20
738.1699165793
 30
0.0
 10
287.6024887871
 20
738.1264629025
 30
0.0
 10
287.6024889275
 20
738.1069892191
 30
0.0
  0
SPLINE
  5
3FD
100
AcDbEntity
  8
0
100
AcDbSpline
 62
7
  6
BYLAYER
 70
0
 71
3
 72
10
 73
6
 74
0
 42
0.0000001
 43
0.0000001
 44
0.0000000001
 40
0.0
 40
0.0
 40
0.0
 40
0.0
 40
0.2183774546
 40
0.4523105175
 40
1.0
 40
1.0
 40
1.0
 40
1.0
 10
287.085741282
 20
738.5647547936
 30
0.0
 10
287.0857413964
 20
738.548889497
 30
0.0
 10
287.0916180515
 20
738.5158008515
 30
0.0
 10
287.1267819537
 20
738.4511759083
 30
0.0
 10
287.173321936
 20
738.4145487661
 30
0.0
 10
287.2077813498
 20
738.3946540644
 30
0.0
  0
SPLINE
  5
3FE
100
AcDbEntity
  8
0
100
AcDbSpline
 62
7
  6
BYLAYER
 70
0
 71
3
 72
10
 73
6
 74
0
 42
0.0000001
 43
0.0000001
 44
0.0000000001
 40
0.0
 40
0.0
 40
0.0
 40
0.0
 40
0.547689002
 40
0.7816220466
 40
1.0
 40
1.0
 40
1.0
 40
1.0
 10
285.8098197048
 20
738.3946507043
 30
0.0
 10
285.8442788111
 20
738.4145455598
 30
0.0
 10
285.8908183102
 20
738.4511729584
 30
0.0
 10
285.9259812778
 20
738.5157981057
 30
0.0
 10
285.9318574334
 20
738.5488867487
 30
0.0
 10
285.931857319
 20
738.56475202
 30
0.0
  0
SPLINE
  5
3FF
100
AcDbEntity
  8
0
100
AcDbSpline
 62
7
  6
BYLAYER
 70
0
 71
3
 72
9
 73
5
 74
0
 42
0.0000001
 43
0.0000001
 44
0.0000000001
 40
0.0
 40
0.0
 40
0.0
 40
0.0
 40
0.4492438796
 40
1.0
 40
1.0
 40
1.0
 40
1.0
 10
285.3937779075
 20
738.0946643223
 30
0.0
 10
285.393777767
 20
738.114137948
 30
0.0
 10
285.4107992473
 20
738.1575917319
 30
0.0
 10
285.4463250123
 20
738.1847881985
 30
0.0
 10
285.4670004762
 20
738.1967251118
 30
0.0
  0
SPLINE
  5
400
100
AcDbEntity
  8
0
100
AcDbSpline
 62
7
  6
BYLAYER
 70
0
 71
3
 72
15
 73
11
 74
0
 42
0.0000001
 43
0.0000001
 44
0.0000000001
 40
0.0
 40
0.0
 40
0.0
 40
0.0
 40
0.1487761035
 40
0.2815960386
 40
0.3999294873
 40
0.5086801157
 40
0.6158070911
 40
0.7298709951
 40
0.8570482552
 40
1.0
 40
1.0
 40
1.0
 40
1.0
 10
287.595183428
 20
737.8350335436
 30
0.0
 10
287.677489821
 20
737.8758829766
 30
0.0
 10
287.8277809332
 20
737.9655556111
 30
0.0
 10
288.011808806
 20
738.1333385419
 30
0.0
 10
288.134402115
 20
738.3224906365
 30
0.0
 10
288.1866451955
 20
738.5266003427
 30
0.0
 10
288.1621962681
 20
738.7334555151
 30
0.0
 10
288.0643134635
 20
738.9290777273
 30
0.0
 10
287.901865002
 20
739.1052379196
 30
0.0
 10
287.7637646605
 20
739.2010157272
 30
0.0
 10
287.6873039659
 20
739.2451593312
 30
0.0
  0
SPLINE
  5
401
100
AcDbEntity
  8
0
100
AcDbSpline
 62
7
  6
BYLAYER
 70
0
 71
3
 72
20
 73
16
 74
0
 42
0.0000001
 43
0.0000001
 44
0.0000000001
 40
0.0
 40
0.0
 40
0.0
 40
0.0
 40
0.1382024044
 40
0.2912933923
 40
0.4443860451
 40
0.5162950851
 40
0.5829391926
 40
0.6433703889
 40
0.697431193
 40
0.7460557978
 40
0.7914672403
 40
0.836879028
 40
0.8855027762
 40
0.9395691098
 40
1.0
 40
1.0
 40
1.0
 40
1.0
 10
287.6873039659
 20
739.2451593312
 30
0.0
 10
287.5200011477
 20
739.3417494732
 30
0.0
 10
287.130820735
 20
739.4827073799
 30
0.0
 10
286.5091688151
 20
739.550295183
 30
0.0
 10
285.978403968
 20
739.4926630854
 30
0.0
 10
285.5873521345
 20
739.3738668838
 30
0.0
 10
285.3342038749
 20
739.2559918488
 30
0.0
 10
285.1244839476
 20
739.1115819937
 30
0.0
 10
284.9659141004
 20
738.9449085902
 30
0.0
 10
284.8655807548
 20
738.7604489776
 30
0.0
 10
284.8308244856
 20
738.5647592276
 30
0.0
 10
284.8655728354
 20
738.3690727891
 30
0.0
 10
284.9659064055
 20
738.1845918066
 30
0.0
 10
285.1244365238
 20
738.0179467002
 30
0.0
 10
285.2571391911
 20
737.9265828422
 30
0.0
 10
285.330294635
 20
737.8843474825
 30
0.0
  0
SPLINE
  5
402
100
AcDbEntity
  8
0
100
AcDbSpline
 62
7
  6
BYLAYER
 70
0
 71
3
 72
9
 73
5
 74
0
 42
0.0000001
 43
0.0000001
 44
0.0000000001
 40
0.0
 40
0.0
 40
0.0
 40
0.0
 40
0.5507565647
 40
1.0
 40
1.0
 40
1.0
 40
1.0
 10
287.5505966528
 20
739.1369029289
 30
0.0
 10
287.5712723011
 20
739.1249661078
 30
0.0
 10
287.6067983956
 20
739.0977698515
 30
0.0
 10
287.6238205531
 20
739.0543161747
 30
0.0
 10
287.6238206935
 20
739.0348424913
 30
0.0
  0
SPLINE
  5
403
100
AcDbEntity
  8
0
100
AcDbSpline
 62
7
  6
BYLAYER
 70
0
 71
3
 72
9
 73
5
 74
0
 42
0.0000001
 43
0.0000001
 44
0.0000000001
 40
0.0
 40
0.0
 40
0.0
 40
0.0
 40
0.2671440672
 40
1.0
 40
1.0
 40
1.0
 40
1.0
 10
287.3230198345
 20
739.2085060194
 30
0.0
 10
287.3392987914
 20
739.2085060586
 30
0.0
 10
287.4000435613
 20
739.2050535751
 30
0.0
 10
287.4611216196
 20
739.1885601947
 30
0.0
 10
287.4997968346
 20
739.166231554
 30
0.0
  0
SPLINE
  5
404
100
AcDbEntity
  8
0
100
AcDbSpline
 62
7
  6
BYLAYER
 70
0
 71
3
 72
9
 73
5
 74
0
 42
0.0000001
 43
0.0000001
 44
0.0000000001
 40
0.0
 40
0.0
 40
0.0
 40
0.0
 40
0.2291142508
 40
1.0
 40
1.0
 40
1.0
 40
1.0
 10
287.1462434441
 20
739.1662307042
 30
0.0
 10
287.1583421495
 20
739.1732158534
 30
0.0
 10
287.213829296
 20
739.198991455
 30
0.0
 10
287.2760146741
 20
739.2085059065
 30
0.0
 10
287.3230198345
 20
739.2085060194
 30
0.0
  0
SPLINE
  5
405
100
AcDbEntity
  8
0
100
AcDbSpline
 62
7
  6
BYLAYER
 70
0
 71
3
 72
9
 73
5
 74
0
 42
0.0000001
 43
0.0000001
 44
0.0000000001
 40
0.0
 40
0.0
 40
0.0
 40
0.0
 40
0.5255663101
 40
1.0
 40
1.0
 40
1.0
 40
1.0
 10
286.5087968985
 20
738.8978462532
 30
0.0
 10
286.5622970135
 20
738.8978463818
 30
0.0
 10
286.664366043
 20
738.9089112282
 30
0.0
 10
286.7615994034
 20
738.9441576894
 30
0.0
 10
286.8034242155
 20
738.9683051117
 30
0.0
  0
SPLINE
  5
406
100
AcDbEntity
  8
0
100
AcDbSpline
 62
7
  6
BYLAYER
 70
0
 71
3
 72
9
 73
5
 74
0
 42
0.0000001
 43
0.0000001
 44
0.0000000001
 40
0.0
 40
0.0
 40
0.0
 40
0.0
 40
0.4744342232
 40
1.0
 40
1.0
 40
1.0
 40
1.0
 10
286.2141685649
 20
738.9683036955
 30
0.0
 10
286.2559936862
 20
738.9441564968
 30
0.0
 10
286.3532274292
 20
738.9089105187
 30
0.0
 10
286.455296725
 20
738.8978461246
 30
0.0
 10
286.5087968985
 20
738.8978462532
 30
0.0
  0
SPLINE
  5
407
100
AcDbEntity
  8
0
100
AcDbSpline
 62
7
  6
BYLAYER
 70
0
 71
3
 72
9
 73
5
 74
0
 42
0.0000001
 43
0.0000001
 44
0.0000000001
 40
0.0
 40
0.0
 40
0.0
 40
0.0
 40
0.2671440672
 40
1.0
 40
1.0
 40
1.0
 40
1.0
 10
285.6732309361
 20
739.2208216416
 30
0.0
 10
285.689509893
 20
739.2208216807
 30
0.0
 10
285.7502546628
 20
739.2173691972
 30
0.0
 10
285.8113327212
 20
739.2008758168
 30
0.0
 10
285.8500079362
 20
739.1785471762
 30
0.0
  0
SPLINE
  5
408
100
AcDbEntity
  8
0
100
AcDbSpline
 62
7
  6
BYLAYER
 70
0
 71
3
 72
9
 73
5
 74
0
 42
0.0000001
 43
0.0000001
 44
0.0000000001
 40
0.0
 40
0.0
 40
0.0
 40
0.0
 40
0.2671440672
 40
1.0
 40
1.0
 40
1.0
 40
1.0
 10
301.2509927197
 20
728.9183937025
 30
0.0
 10
301.2347137628
 20
728.9183936633
 30
0.0
 10
301.1739689929
 20
728.9218461468
 30
0.0
 10
301.1128909346
 20
728.9383395272
 30
0.0
 10
301.0742157196
 20
728.9606681679
 30
0.0
  0
SPLINE
  5
409
100
AcDbEntity
  8
0
100
AcDbSpline
 62
7
  6
BYLAYER
 70
0
 71
3
 72
9
 73
5
 74
0
 42
0.0000001
 43
0.0000001
 44
0.0000000001
 40
0.0
 40
0.0
 40
0.0
 40
0.0
 40
0.2291142508
 40
1.0
 40
1.0
 40
1.0
 40
1.0
 10
301.4277691101
 20
728.9606690177
 30
0.0
 10
301.4156704047
 20
728.9536838686
 30
0.0
 10
301.3601832582
 20
728.9279082669
 30
0.0
 10
301.2979978801
 20
728.9183938155
 30
0.0
 10
301.2509927197
 20
728.9183937025
 30
0.0
  0
SPLINE
  5
40A
100
AcDbEntity
  8
0
100
AcDbSpline
 62
7
  6
BYLAYER
 70
0
 71
3
 72
9
 73
5
 74
0
 42
0.0000001
 43
0.0000001
 44
0.0000000001
 40
0.0
 40
0.0
 40
0.0
 40
0.0
 40
0.5255663101
 40
1.0
 40
1.0
 40
1.0
 40
1.0
 10
302.0652156557
 20
729.2290534687
 30
0.0
 10
302.0117155407
 20
729.2290533401
 30
0.0
 10
301.9096465112
 20
729.2179884938
 30
0.0
 10
301.8124131508
 20
729.1827420325
 30
0.0
 10
301.7705883387
 20
729.1585946102
 30
0.0
  0
SPLINE
  5
40B
100
AcDbEntity
  8
0
100
AcDbSpline
 62
7
  6
BYLAYER
 70
0
 71
3
 72
9
 73
5
 74
0
 42
0.0000001
 43
0.0000001
 44
0.0000000001
 40
0.0
 40
0.0
 40
0.0
 40
0.0
 40
0.4744342232
 40
1.0
 40
1.0
 40
1.0
 40
1.0
 10
302.3598439893
 20
729.1585960264
 30
0.0
 10
302.318018868
 20
729.1827432252
 30
0.0
 10
302.220785125
 20
729.2179892033
 30
0.0
 10
302.1187158292
 20
729.2290535973
 30
0.0
 10
302.0652156557
 20
729.2290534687
 30
0.0
  0
SPLINE
  5
40C
100
AcDbEntity
  8
0
100
AcDbSpline
 62
7
  6
BYLAYER
 70
0
 71
3
 72
9
 73
5
 74
0
 42
0.0000001
 43
0.0000001
 44
0.0000000001
 40
0.0
 40
0.0
 40
0.0
 40
0.0
 40
0.2671440672
 40
1.0
 40
1.0
 40
1.0
 40
1.0
 10
302.8581045265
 20
728.9307171533
 30
0.0
 10
302.8418255696
 20
728.9307171141
 30
0.0
 10
302.7810807997
 20
728.9341695976
 30
0.0
 10
302.7200027414
 20
728.950662978
 30
0.0
 10
302.6813275264
 20
728.9729916187
 30
0.0
  0
SPLINE
  5
40D
100
AcDbEntity
  8
0
100
AcDbSpline
 62
7
  6
BYLAYER
 70
0
 71
3
 72
9
 73
5
 74
0
 42
0.0000001
 43
0.0000001
 44
0.0000000001
 40
0.0
 40
0.0
 40
0.0
 40
0.0
 40
0.2291142508
 40
1.0
 40
1.0
 40
1.0
 40
1.0
 10
303.034880917
 20
728.9729924685
 30
0.0
 10
303.0227822115
 20
728.9660073194
 30
0.0
 10
302.967295065
 20
728.9402317177
 30
0.0
 10
302.9051096869
 20
728.9307172663
 30
0.0
 10
302.8581045265
 20
728.9307171533
 30
0.0
  0
SPLINE
  5
40E
100
AcDbEntity
  8
0
100
AcDbSpline
 62
7
  6
BYLAYER
 70
0
 71
3
 72
9
 73
5
 74
0
 42
0.0000001
 43
0.0000001
 44
0.0000000001
 40
0.0
 40
0.0
 40
0.0
 40
0.0
 40
0.4492438796
 40
1.0
 40
1.0
 40
1.0
 40
1.0
 10
303.1589028808
 20
729.1043821274
 30
0.0
 10
303.1589030212
 20
729.0849085017
 30
0.0
 10
303.141881541
 20
729.0414547178
 30
0.0
 10
303.1063557759
 20
729.0142582512
 30
0.0
 10
303.0856803121
 20
729.0023213379
 30
0.0
  0
SPLINE
  5
40F
100
AcDbEntity
  8
0
100
AcDbSpline
 62
7
  6
BYLAYER
 70
0
 71
3
 72
10
 73
6
 74
0
 42
0.0000001
 43
0.0000001
 44
0.0000000001
 40
0.0
 40
0.0
 40
0.0
 40
0.0
 40
0.547689002
 40
0.7816220466
 40
1.0
 40
1.0
 40
1.0
 40
1.0
 10
302.7641928494
 20
729.7322490176
 30
0.0
 10
302.7297337431
 20
729.7123541621
 30
0.0
 10
302.683194244
 20
729.6757267636
 30
0.0
 10
302.6480312764
 20
729.6111016162
 30
0.0
 10
302.6421551208
 20
729.5780129732
 30
0.0
 10
302.6421552352
 20
729.5621477019
 30
0.0
  0
SPLINE
  5
410
100
AcDbEntity
  8
0
100
AcDbSpline
 62
7
  6
BYLAYER
 70
0
 71
3
 72
9
 73
5
 74
0
 42
0.0000001
 43
0.0000001
 44
0.0000000001
 40
0.0
 40
0.0
 40
0.0
 40
0.0
 40
0.4492438796
 40
1.0
 40
1.0
 40
1.0
 40
1.0
 10
303.1802346467
 20
730.0322353996
 30
0.0
 10
303.1802347872
 20
730.0127617739
 30
0.0
 10
303.1632133069
 20
729.96930799
 30
0.0
 10
303.1276875419
 20
729.9421115234
 30
0.0
 10
303.107012078
 20
729.9301746101
 30
0.0
  0
SPLINE
  5
411
100
AcDbEntity
  8
0
100
AcDbSpline
 62
7
  6
BYLAYER
 70
0
 71
3
 72
9
 73
5
 74
0
 42
0.0000001
 43
0.0000001
 44
0.0000000001
 40
0.0
 40
0.0
 40
0.0
 40
0.0
 40
0.5507565647
 40
1.0
 40
1.0
 40
1.0
 40
1.0
 10
301.0020705757
 20
729.9424891382
 30
0.0
 10
300.9813949275
 20
729.9544259592
 30
0.0
 10
300.9458688329
 20
729.9816222155
 30
0.0
 10
300.9288466755
 20
730.0250758924
 30
0.0
 10
300.928846535
 20
730.0445495757
 30
0.0
  0
SPLINE
  5
412
100
AcDbEntity
  8
0
100
AcDbSpline
 62
7
  6
BYLAYER
 70
0
 71
3
 72
10
 73
6
 74
0
 42
0.0000001
 43
0.0000001
 44
0.0000000001
 40
0.0
 40
0.0
 40
0.0
 40
0.0
 40
0.2183774546
 40
0.4523105175
 40
1.0
 40
1.0
 40
1.0
 40
1.0
 10
301.4882712722
 20
729.5621449283
 30
0.0
 10
301.4882711578
 20
729.5780102249
 30
0.0
 10
301.4823945027
 20
729.6110988704
 30
0.0
 10
301.4472306005
 20
729.6757238136
 30
0.0
 10
301.4006906182
 20
729.7123509558
 30
0.0
 10
301.3662312044
 20
729.7322456575
 30
0.0
  0
SPLINE
  5
413
100
AcDbEntity
  8
0
100
AcDbSpline
 62
7
  6
BYLAYER
 70
0
 71
3
 72
9
 73
5
 74
0
 42
0.0000001
 43
0.0000001
 44
0.0000000001
 40
0.0
 40
0.0
 40
0.0
 40
0.0
 40
0.5507565647
 40
1.0
 40
1.0
 40
1.0
 40
1.0
 10
301.0234159014
 20
728.9899967931
 30
0.0
 10
301.0027402531
 20
729.0019336141
 30
0.0
 10
300.9672141586
 20
729.0291298704
 30
0.0
 10
300.9501920011
 20
729.0725835472
 30
0.0
 10
300.9501918607
 20
729.0920572306
 30
0.0
  0
SPLINE
  5
414
100
AcDbEntity
  8
0
100
AcDbSpline
 62
7
  6
BYLAYER
 70
0
 71
3
 72
13
 73
9
 74
0
 42
0.0000001
 43
0.0000001
 44
0.0000000001
 40
0.0
 40
0.0
 40
0.0
 40
0.0
 40
0.0973920399
 40
0.1989279499
 40
0.3079450381
 40
0.4265646011
 40
0.6945835421
 40
1.0
 40
1.0
 40
1.0
 40
1.0
 10
304.5652062146
 20
728.2013089811
 30
0.0
 10
304.565199536
 20
728.1290023188
 30
0.0
 10
304.5455490593
 20
727.9806639772
 30
0.0
 10
304.4591372188
 20
727.7667845887
 30
0.0
 10
304.3190968964
 20
727.5643885066
 30
0.0
 10
304.0555866806
 20
727.3050306524
 30
0.0
 10
303.607911764
 20
727.0389760921
 30
0.0
 10
303.199781768
 20
726.9078700989
 30
0.0
 10
302.9786404198
 20
726.8577495897
 30
0.0
  0
SPLINE
  5
415
100
AcDbEntity
  8
0
100
AcDbSpline
 62
7
  6
BYLAYER
 70
0
 71
3
 72
10
 73
6
 74
0
 42
0.0000001
 43
0.0000001
 44
0.0000000001
 40
0.0
 40
0.0
 40
0.0
 40
0.0
 40
0.2473292689
 40
0.4952676752
 40
1.0
 40
1.0
 40
1.0
 40
1.0
 10
299.6530009953
 20
729.3697332879
 30
0.0
 10
299.6885298117
 20
729.4662685715
 30
0.0
 10
299.7805202892
 20
729.6525429024
 30
0.0
 10
300.0345881213
 20
729.9841882265
 30
0.0
 10
300.2882052849
 20
730.1788369604
 30
0.0
 10
300.4700010795
 20
730.2837998122
 30
0.0
  0
SPLINE
  5
416
100
AcDbEntity
  8
0
100
AcDbSpline
 62
7
  6
BYLAYER
 70
0
 71
3
 72
11
 73
7
 74
0
 42
0.0000001
 43
0.0000001
 44
0.0000000001
 40
0.0
 40
0.0
 40
0.0
 40
0.0
 40
0.2550648906
 40
0.5043400343
 40
0.7520505207
 40
1.0
 40
1.0
 40
1.0
 40
1.0
 10
303.6604254279
 20
730.2837998122
 30
0.0
 10
303.788873203
 20
730.2096383344
 30
0.0
 10
304.0302506163
 20
730.0389197631
 30
0.0
 10
304.3243502547
 20
729.7093321895
 30
0.0
 10
304.5192202562
 20
729.316038385
 30
0.0
 10
304.5652132537
 20
729.0259098105
 30
0.0
 10
304.5652132537
 20
728.8817276341
 30
0.0
  0
SPLINE
  5
417
100
AcDbEntity
  8
0
100
AcDbSpline
 62
7
  6
BYLAYER
 70
0
 71
3
 72
11
 73
7
 74
0
 42
0.0000001
 43
0.0000001
 44
0.0000000001
 40
0.0
 40
0.0
 40
0.0
 40
0.0
 40
0.2433553771
 40
0.5000066983
 40
0.7566556155
 40
1.0
 40
1.0
 40
1.0
 40
1.0
 10
300.4700010795
 20
730.2837998122
 30
0.0
 10
300.7027566379
 20
730.4181851386
 30
0.0
 10
301.2280072722
 20
730.6153879535
 30
0.0
 10
302.0652062668
 20
730.7090778255
 30
0.0
 10
302.9023927625
 20
730.6153898712
 30
0.0
 10
303.4276312214
 20
730.4182005701
 30
0.0
 10
303.6603792461
 20
730.2838264753
 30
0.0
  0
SPLINE
  5
418
100
AcDbEntity
  8
0
100
AcDbSpline
 62
7
  6
BYLAYER
 70
0
 71
3
 72
9
 73
5
 74
0
 42
0.0000001
 43
0.0000001
 44
0.0000000001
 40
0.0
 40
0.0
 40
0.0
 40
0.0
 40
0.2291142508
 40
1.0
 40
1.0
 40
1.0
 40
1.0
 10
301.0528684989
 20
730.1759392347
 30
0.0
 10
301.0649672043
 20
730.1829243838
 30
0.0
 10
301.1204543508
 20
730.2086999855
 30
0.0
 10
301.1826397289
 20
730.2182144369
 30
0.0
 10
301.2296448893
 20
730.2182145499
 30
0.0
  0
SPLINE
  5
419
100
AcDbEntity
  8
0
100
AcDbSpline
 62
7
  6
BYLAYER
 70
0
 71
3
 72
9
 73
5
 74
0
 42
0.0000001
 43
0.0000001
 44
0.0000000001
 40
0.0
 40
0.0
 40
0.0
 40
0.0
 40
0.4492438796
 40
1.0
 40
1.0
 40
1.0
 40
1.0
 10
300.928846535
 20
730.0445495757
 30
0.0
 10
300.9288463946
 20
730.0640232014
 30
0.0
 10
300.9458678748
 20
730.1074769853
 30
0.0
 10
300.9813936399
 20
730.1346734519
 30
0.0
 10
301.0020691037
 20
730.1466103653
 30
0.0
  0
SPLINE
  5
41A
100
AcDbEntity
  8
0
100
AcDbSpline
 62
7
  6
BYLAYER
 70
0
 71
3
 72
9
 73
5
 74
0
 42
0.0000001
 43
0.0000001
 44
0.0000000001
 40
0.0
 40
0.0
 40
0.0
 40
0.0
 40
0.5507565647
 40
1.0
 40
1.0
 40
1.0
 40
1.0
 10
303.0856788401
 20
729.206442565
 30
0.0
 10
303.1063544883
 20
729.1945057439
 30
0.0
 10
303.1418805829
 20
729.1673094877
 30
0.0
 10
303.1589027403
 20
729.1238558108
 30
0.0
 10
303.1589028808
 20
729.1043821274
 30
0.0
  0
SPLINE
  5
41B
100
AcDbEntity
  8
0
100
AcDbSpline
 62
7
  6
BYLAYER
 70
0
 71
3
 72
10
 73
6
 74
0
 42
0.0000001
 43
0.0000001
 44
0.0000000001
 40
0.0
 40
0.0
 40
0.0
 40
0.0
 40
0.2183774546
 40
0.4523105175
 40
1.0
 40
1.0
 40
1.0
 40
1.0
 10
302.6421552352
 20
729.5621477019
 30
0.0
 10
302.6421553496
 20
729.5462824053
 30
0.0
 10
302.6480320048
 20
729.5131937599
 30
0.0
 10
302.683195907
 20
729.4485688167
 30
0.0
 10
302.7297358893
 20
729.4119416744
 30
0.0
 10
302.764195303
 20
729.3920469727
 30
0.0
  0
SPLINE
  5
41C
100
AcDbEntity
  8
0
100
AcDbSpline
 62
7
  6
BYLAYER
 70
0
 71
3
 72
10
 73
6
 74
0
 42
0.0000001
 43
0.0000001
 44
0.0000000001
 40
0.0
 40
0.0
 40
0.0
 40
0.0
 40
0.547689002
 40
0.7816220466
 40
1.0
 40
1.0
 40
1.0
 40
1.0
 10
301.366233658
 20
729.3920436126
 30
0.0
 10
301.4006927643
 20
729.4119384682
 30
0.0
 10
301.4472322634
 20
729.4485658667
 30
0.0
 10
301.482395231
 20
729.5131910141
 30
0.0
 10
301.4882713866
 20
729.5462796571
 30
0.0
 10
301.4882712722
 20
729.5621449283
 30
0.0
  0
SPLINE
  5
41D
100
AcDbEntity
  8
0
100
AcDbSpline
 62
7
  6
BYLAYER
 70
0
 71
3
 72
9
 73
5
 74
0
 42
0.0000001
 43
0.0000001
 44
0.0000000001
 40
0.0
 40
0.0
 40
0.0
 40
0.0
 40
0.4492438796
 40
1.0
 40
1.0
 40
1.0
 40
1.0
 10
300.9501918607
 20
729.0920572306
 30
0.0
 10
300.9501917203
 20
729.1115308563
 30
0.0
 10
300.9672132005
 20
729.1549846402
 30
0.0
 10
301.0027389656
 20
729.1821811068
 30
0.0
 10
301.0234144294
 20
729.1941180202
 30
0.0
  0
SPLINE
  5
41E
100
AcDbEntity
  8
0
100
AcDbSpline
 62
7
  6
BYLAYER
 70
0
 71
3
 72
20
 73
16
 74
0
 42
0.0000001
 43
0.0000001
 44
0.0000000001
 40
0.0
 40
0.0
 40
0.0
 40
0.0
 40
0.1382024044
 40
0.2912933923
 40
0.4443860451
 40
0.5162950851
 40
0.5829391926
 40
0.6433703889
 40
0.697431193
 40
0.7460557978
 40
0.7914672403
 40
0.836879028
 40
0.8855027762
 40
0.9395691098
 40
1.0
 40
1.0
 40
1.0
 40
1.0
 10
300.8867085882
 20
728.8817403908
 30
0.0
 10
301.0540114065
 20
728.7851502488
 30
0.0
 10
301.4431918191
 20
728.6441923421
 30
0.0
 10
302.064843739
 20
728.576604539
 30
0.0
 10
302.5956085861
 20
728.6342366366
 30
0.0
 10
302.9866604196
 20
728.7530328382
 30
0.0
 10
303.2398086792
 20
728.8709078731
 30
0.0
 10
303.4495286065
 20
729.0153177283
 30
0.0
 10
303.6080984537
 20
729.1819911318
 30
0.0
 10
303.7084317993
 20
729.3664507443
 30
0.0
 10
303.7431880685
 20
729.5621404943
 30
0.0
 10
303.7084397187
 20
729.7578269329
 30
0.0
 10
303.6081061486
 20
729.9423079154
 30
0.0
 10
303.4495760303
 20
730.1089530218
 30
0.0
 10
303.3168733631
 20
730.2003168798
 30
0.0
 10
303.2437179191
 20
730.2425522395
 30
0.0
  0
SPLINE
  5
41F
100
AcDbEntity
  8
0
100
AcDbSpline
 62
7
  6
BYLAYER
 70
0
 71
3
 72
9
 73
5
 74
0
 42
0.0000001
 43
0.0000001
 44
0.0000000001
 40
0.0
 40
0.0
 40
0.0
 40
0.0
 40
0.2550044393
 40
1.0
 40
1.0
 40
1.0
 40
1.0
 10
302.8163590107
 20
727.5050634566
 30
0.0
 10
302.8563799265
 20
727.5123411397
 30
0.0
 10
303.0128639053
 20
727.5433143672
 30
0.0
 10
303.167454895
 20
727.5840782302
 30
0.0
 10
303.2806005842
 20
727.6204191643
 30
0.0
  0
SPLINE
  5
420
100
AcDbEntity
  8
0
100
AcDbSpline
 62
7
  6
BYLAYER
 70
0
 71
3
 72
12
 73
8
 74
0
 42
0.0000001
 43
0.0000001
 44
0.0000000001
 40
0.0
 40
0.0
 40
0.0
 40
0.0
 40
0.302176583
 40
0.5673767124
 40
0.795389341
 40
0.8994013347
 40
1.0
 40
1.0
 40
1.0
 40
1.0
 10
303.2806005842
 20
727.6204191643
 30
0.0
 10
303.4641176763
 20
727.6793624841
 30
0.0
 10
303.8006342879
 20
727.8199339039
 30
0.0
 10
304.2189322049
 20
728.1154503291
 30
0.0
 10
304.4566694406
 20
728.4247074781
 30
0.0
 10
304.5498607937
 20
728.6865767492
 30
0.0
 10
304.5652028827
 20
728.8175583185
 30
0.0
 10
304.5652085833
 20
728.8817276343
 30
0.0
  0
SPLINE
  5
421
100
AcDbEntity
  8
0
100
AcDbSpline
 62
7
  6
BYLAYER
 70
0
 71
3
 72
20
 73
16
 74
0
 42
0.0000001
 43
0.0000001
 44
0.0000000001
 40
0.0
 40
0.0
 40
0.0
 40
0.0
 40
0.1382024044
 40
0.2912933923
 40
0.4443860451
 40
0.5162950851
 40
0.5829391926
 40
0.6433703889
 40
0.697431193
 40
0.7460557978
 40
0.7914672403
 40
0.836879028
 40
0.8855027762
 40
0.9395691098
 40
1.0
 40
1.0
 40
1.0
 40
1.0
 10
303.2437179191
 20
730.2425522395
 30
0.0
 10
303.0764151009
 20
730.3391423815
 30
0.0
 10
302.6872346882
 20
730.4801002882
 30
0.0
 10
302.0655827683
 20
730.5476880913
 30
0.0
 10
301.5348179213
 20
730.4900559937
 30
0.0
 10
301.1437660877
 20
730.3712597921
 30
0.0
 10
300.8906178282
 20
730.2533847571
 30
0.0
 10
300.6808979009
 20
730.108974902
 30
0.0
 10
300.5223280537
 20
729.9423014985
 30
0.0
 10
300.4219947081
 20
729.7578418859
 30
0.0
 10
300.3872384389
 20
729.562152136
 30
0.0
 10
300.4219867886
 20
729.3664656974
 30
0.0
 10
300.5223203588
 20
729.1819847149
 30
0.0
 10
300.680850477
 20
729.0153396085
 30
0.0
 10
300.8135531443
 20
728.9239757505
 30
0.0
 10
300.8867085882
 20
728.8817403908
 30
0.0
  0
SPLINE
  5
422
100
AcDbEntity
  8
0
100
AcDbSpline
 62
7
  6
BYLAYER
 70
0
 71
3
 72
9
 73
5
 74
0
 42
0.0000001
 43
0.0000001
 44
0.0000000001
 40
0.0
 40
0.0
 40
0.0
 40
0.0
 40
0.5507565647
 40
1.0
 40
1.0
 40
1.0
 40
1.0
 10
303.107010606
 20
730.1342958372
 30
0.0
 10
303.1276862543
 20
730.1223590161
 30
0.0
 10
303.1632123489
 20
730.0951627599
 30
0.0
 10
303.1802345063
 20
730.051709083
 30
0.0
 10
303.1802346467
 20
730.0322353996
 30
0.0
  0
SPLINE
  5
423
100
AcDbEntity
  8
0
100
AcDbSpline
 62
7
  6
BYLAYER
 70
0
 71
3
 72
9
 73
5
 74
0
 42
0.0000001
 43
0.0000001
 44
0.0000000001
 40
0.0
 40
0.0
 40
0.0
 40
0.0
 40
0.2671440672
 40
1.0
 40
1.0
 40
1.0
 40
1.0
 10
302.8794337877
 20
730.2058989278
 30
0.0
 10
302.8957127447
 20
730.2058989669
 30
0.0
 10
302.9564575145
 20
730.2024464834
 30
0.0
 10
303.0175355729
 20
730.185953103
 30
0.0
 10
303.0562107879
 20
730.1636244624
 30
0.0
  0
SPLINE
  5
424
100
AcDbEntity
  8
0
100
AcDbSpline
 62
7
  6
BYLAYER
 70
0
 71
3
 72
9
 73
5
 74
0
 42
0.0000001
 43
0.0000001
 44
0.0000000001
 40
0.0
 40
0.0
 40
0.0
 40
0.0
 40
0.2291142508
 40
1.0
 40
1.0
 40
1.0
 40
1.0
 10
302.7026573973
 20
730.1636236125
 30
0.0
 10
302.7147561028
 20
730.1706087617
 30
0.0
 10
302.7702432492
 20
730.1963843634
 30
0.0
 10
302.8324286274
 20
730.2058988148
 30
0.0
 10
302.8794337877
 20
730.2058989278
 30
0.0
  0
SPLINE
  5
425
100
AcDbEntity
  8
0
100
AcDbSpline
 62
7
  6
BYLAYER
 70
0
 71
3
 72
9
 73
5
 74
0
 42
0.0000001
 43
0.0000001
 44
0.0000000001
 40
0.0
 40
0.0
 40
0.0
 40
0.0
 40
0.5255663101
 40
1.0
 40
1.0
 40
1.0
 40
1.0
 10
302.0652108517
 20
729.8952391615
 30
0.0
 10
302.1187109667
 20
729.8952392901
 30
0.0
 10
302.2207799962
 20
729.9063041365
 30
0.0
 10
302.3180133566
 20
729.9415505977
 30
0.0
 10
302.3598381687
 20
729.9656980201
 30
0.0
  0
SPLINE
  5
426
100
AcDbEntity
  8
0
100
AcDbSpline
 62
7
  6
BYLAYER
 70
0
 71
3
 72
9
 73
5
 74
0
 42
0.0000001
 43
0.0000001
 44
0.0000000001
 40
0.0
 40
0.0
 40
0.0
 40
0.0
 40
0.4744342232
 40
1.0
 40
1.0
 40
1.0
 40
1.0
 10
301.7705825181
 20
729.9656966039
 30
0.0
 10
301.8124076394
 20
729.9415494051
 30
0.0
 10
301.9096413825
 20
729.906303427
 30
0.0
 10
302.0117106783
 20
729.8952390329
 30
0.0
 10
302.0652108517
 20
729.8952391615
 30
0.0
  0
SPLINE
  5
427
100
AcDbEntity
  8
0
100
AcDbSpline
 62
7
  6
BYLAYER
 70
0
 71
3
 72
9
 73
5
 74
0
 42
0.0000001
 43
0.0000001
 44
0.0000000001
 40
0.0
 40
0.0
 40
0.0
 40
0.0
 40
0.2671440672
 40
1.0
 40
1.0
 40
1.0
 40
1.0
 10
301.2296448893
 20
730.2182145499
 30
0.0
 10
301.2459238462
 20
730.218214589
 30
0.0
 10
301.3066686161
 20
730.2147621056
 30
0.0
 10
301.3677466744
 20
730.1982687252
 30
0.0
 10
301.4064218894
 20
730.1759400845
 30
0.0
  0
SPLINE
  5
428
100
AcDbEntity
  8
0
100
AcDbSpline
 62
7
  6
BYLAYER
 70
0
 71
3
 72
9
 73
5
 74
0
 42
0.0000001
 43
0.0000001
 44
0.0000000001
 40
0.0
 40
0.0
 40
0.0
 40
0.0
 40
0.2671440672
 40
1.0
 40
1.0
 40
1.0
 40
1.0
 10
270.1382943478
 20
728.939629409
 30
0.0
 10
270.1220153908
 20
728.9396293698
 30
0.0
 10
270.061270621
 20
728.9430818533
 30
0.0
 10
270.0001925626
 20
728.9595752337
 30
0.0
 10
269.9615173476
 20
728.9819038744
 30
0.0
  0
SPLINE
  5
429
100
AcDbEntity
  8
0
100
AcDbSpline
 62
7
  6
BYLAYER
 70
0
 71
3
 72
9
 73
5
 74
0
 42
0.0000001
 43
0.0000001
 44
0.0000000001
 40
0.0
 40
0.0
 40
0.0
 40
0.0
 40
0.2291142508
 40
1.0
 40
1.0
 40
1.0
 40
1.0
 10
270.3150707382
 20
728.9819047242
 30
0.0
 10
270.3029720327
 20
728.9749195751
 30
0.0
 10
270.2474848863
 20
728.9491439734
 30
0.0
 10
270.1852995081
 20
728.939629522
 30
0.0
 10
270.1382943478
 20
728.939629409
 30
0.0
  0
SPLINE
  5
42A
100
AcDbEntity
  8
0
100
AcDbSpline
 62
7
  6
BYLAYER
 70
0
 71
3
 72
9
 73
5
 74
0
 42
0.0000001
 43
0.0000001
 44
0.0000000001
 40
0.0
 40
0.0
 40
0.0
 40
0.0
 40
0.5255663101
 40
1.0
 40
1.0
 40
1.0
 40
1.0
 10
270.9525172838
 20
729.2502891752
 30
0.0
 10
270.8990171688
 20
729.2502890466
 30
0.0
 10
270.7969481393
 20
729.2392242003
 30
0.0
 10
270.6997147789
 20
729.203977739
 30
0.0
 10
270.6578899668
 20
729.1798303167
 30
0.0
  0
SPLINE
  5
42B
100
AcDbEntity
  8
0
100
AcDbSpline
 62
7
  6
BYLAYER
 70
0
 71
3
 72
9
 73
5
 74
0
 42
0.0000001
 43
0.0000001
 44
0.0000000001
 40
0.0
 40
0.0
 40
0.0
 40
0.0
 40
0.4744342232
 40
1.0
 40
1.0
 40
1.0
 40
1.0
 10
271.2471456173
 20
729.1798317329
 30
0.0
 10
271.205320496
 20
729.2039789317
 30
0.0
 10
271.108086753
 20
729.2392249098
 30
0.0
 10
271.0060174572
 20
729.2502893038
 30
0.0
 10
270.9525172838
 20
729.2502891752
 30
0.0
  0
SPLINE
  5
42C
100
AcDbEntity
  8
0
100
AcDbSpline
 62
7
  6
BYLAYER
 70
0
 71
3
 72
9
 73
5
 74
0
 42
0.0000001
 43
0.0000001
 44
0.0000000001
 40
0.0
 40
0.0
 40
0.0
 40
0.0
 40
0.2671440672
 40
1.0
 40
1.0
 40
1.0
 40
1.0
 10
271.7454061546
 20
728.9519528598
 30
0.0
 10
271.7291271976
 20
728.9519528206
 30
0.0
 10
271.6683824278
 20
728.9554053041
 30
0.0
 10
271.6073043694
 20
728.9718986845
 30
0.0
 10
271.5686291544
 20
728.9942273252
 30
0.0
  0
SPLINE
  5
42D
100
AcDbEntity
  8
0
100
AcDbSpline
 62
7
  6
BYLAYER
 70
0
 71
3
 72
9
 73
5
 74
0
 42
0.0000001
 43
0.0000001
 44
0.0000000001
 40
0.0
 40
0.0
 40
0.0
 40
0.0
 40
0.2291142508
 40
1.0
 40
1.0
 40
1.0
 40
1.0
 10
271.922182545
 20
728.994228175
 30
0.0
 10
271.9100838395
 20
728.9872430258
 30
0.0
 10
271.8545966931
 20
728.9614674242
 30
0.0
 10
271.7924113149
 20
728.9519529728
 30
0.0
 10
271.7454061546
 20
728.9519528598
 30
0.0
  0
SPLINE
  5
42E
100
AcDbEntity
  8
0
100
AcDbSpline
 62
7
  6
BYLAYER
 70
0
 71
3
 72
9
 73
5
 74
0
 42
0.0000001
 43
0.0000001
 44
0.0000000001
 40
0.0
 40
0.0
 40
0.0
 40
0.0
 40
0.4492438796
 40
1.0
 40
1.0
 40
1.0
 40
1.0
 10
272.0462045088
 20
729.1256178339
 30
0.0
 10
272.0462046493
 20
729.1061442082
 30
0.0
 10
272.029183169
 20
729.0626904243
 30
0.0
 10
271.9936574039
 20
729.0354939577
 30
0.0
 10
271.9729819401
 20
729.0235570444
 30
0.0
  0
SPLINE
  5
42F
100
AcDbEntity
  8
0
100
AcDbSpline
 62
7
  6
BYLAYER
 70
0
 71
3
 72
10
 73
6
 74
0
 42
0.0000001
 43
0.0000001
 44
0.0000000001
 40
0.0
 40
0.0
 40
0.0
 40
0.0
 40
0.547689002
 40
0.7816220466
 40
1.0
 40
1.0
 40
1.0
 40
1.0
 10
271.6514944775
 20
729.7534847241
 30
0.0
 10
271.6170353712
 20
729.7335898686
 30
0.0
 10
271.5704958721
 20
729.6969624701
 30
0.0
 10
271.5353329045
 20
729.6323373227
 30
0.0
 10
271.5294567489
 20
729.5992486797
 30
0.0
 10
271.5294568633
 20
729.5833834084
 30
0.0
  0
SPLINE
  5
430
100
AcDbEntity
  8
0
100
AcDbSpline
 62
7
  6
BYLAYER
 70
0
 71
3
 72
9
 73
5
 74
0
 42
0.0000001
 43
0.0000001
 44
0.0000000001
 40
0.0
 40
0.0
 40
0.0
 40
0.0
 40
0.4492438796
 40
1.0
 40
1.0
 40
1.0
 40
1.0
 10
272.0675362748
 20
730.0534711061
 30
0.0
 10
272.0675364152
 20
730.0339974804
 30
0.0
 10
272.050514935
 20
729.9905436965
 30
0.0
 10
272.0149891699
 20
729.9633472299
 30
0.0
 10
271.9943137061
 20
729.9514103166
 30
0.0
  0
SPLINE
  5
431
100
AcDbEntity
  8
0
100
AcDbSpline
 62
7
  6
BYLAYER
 70
0
 71
3
 72
9
 73
5
 74
0
 42
0.0000001
 43
0.0000001
 44
0.0000000001
 40
0.0
 40
0.0
 40
0.0
 40
0.0
 40
0.5507565647
 40
1.0
 40
1.0
 40
1.0
 40
1.0
 10
269.8893722038
 20
729.9637248447
 30
0.0
 10
269.8686965555
 20
729.9756616657
 30
0.0
 10
269.833170461
 20
730.002857922
 30
0.0
 10
269.8161483035
 20
730.0463115989
 30
0.0
 10
269.8161481631
 20
730.0657852822
 30
0.0
  0
SPLINE
  5
432
100
AcDbEntity
  8
0
100
AcDbSpline
 62
7
  6
BYLAYER
 70
0
 71
3
 72
10
 73
6
 74
0
 42
0.0000001
 43
0.0000001
 44
0.0000000001
 40
0.0
 40
0.0
 40
0.0
 40
0.0
 40
0.2183774546
 40
0.4523105175
 40
1.0
 40
1.0
 40
1.0
 40
1.0
 10
270.3755729003
 20
729.5833806348
 30
0.0
 10
270.3755727859
 20
729.5992459314
 30
0.0
 10
270.3696961307
 20
729.6323345769
 30
0.0
 10
270.3345322285
 20
729.6969595201
 30
0.0
 10
270.2879922462
 20
729.7335866623
 30
0.0
 10
270.2535328325
 20
729.753481364
 30
0.0
  0
SPLINE
  5
433
100
AcDbEntity
  8
0
100
AcDbSpline
 62
7
  6
BYLAYER
 70
0
 71
3
 72
9
 73
5
 74
0
 42
0.0000001
 43
0.0000001
 44
0.0000000001
 40
0.0
 40
0.0
 40
0.0
 40
0.0
 40
0.5507565647
 40
1.0
 40
1.0
 40
1.0
 40
1.0
 10
269.9107175295
 20
729.0112324996
 30
0.0
 10
269.8900418812
 20
729.0231693206
 30
0.0
 10
269.8545157866
 20
729.0503655769
 30
0.0
 10
269.8374936292
 20
729.0938192537
 30
0.0
 10
269.8374934888
 20
729.1132929371
 30
0.0
  0
SPLINE
  5
434
100
AcDbEntity
  8
0
100
AcDbSpline
 62
7
  6
BYLAYER
 70
0
 71
3
 72
11
 73
7
 74
0
 42
0.0000001
 43
0.0000001
 44
0.0000000001
 40
0.0
 40
0.0
 40
0.0
 40
0.0
 40
0.2898080169
 40
0.5490504853
 40
0.7822322469
 40
1.0
 40
1.0
 40
1.0
 40
1.0
 10
269.1847552887
 20
727.2019342751
 30
0.0
 10
269.0750160377
 20
727.265290828
 30
0.0
 10
268.8759588809
 20
727.4023061505
 30
0.0
 10
268.6381830661
 20
727.6523650562
 30
0.0
 10
268.4876648574
 20
727.9288218072
 30
0.0
 10
268.4525131262
 20
728.1273281618
 30
0.0
 10
268.4525219208
 20
728.2225446319
 30
0.0
  0
SPLINE
  5
435
100
AcDbEntity
  8
0
100
AcDbSpline
 62
7
  6
BYLAYER
 70
0
 71
3
 72
10
 73
6
 74
0
 42
0.0000001
 43
0.0000001
 44
0.0000000001
 40
0.0
 40
0.0
 40
0.0
 40
0.0
 40
0.5249016821
 40
0.7715664297
 40
1.0
 40
1.0
 40
1.0
 40
1.0
 10
270.9833111472
 20
726.7793040463
 30
0.0
 10
270.6569710354
 20
726.776974372
 30
0.0
 10
270.1737333186
 20
726.8267949106
 30
0.0
 10
269.5770842441
 20
727.0059607771
 30
0.0
 10
269.3077528711
 20
727.1309231943
 30
0.0
 10
269.1847552887
 20
727.2019342751
 30
0.0
  0
SPLINE
  5
436
100
AcDbEntity
  8
0
100
AcDbSpline
 62
7
  6
BYLAYER
 70
0
 71
3
 72
11
 73
7
 74
0
 42
0.0000001
 43
0.0000001
 44
0.0000000001
 40
0.0
 40
0.0
 40
0.0
 40
0.0
 40
0.247942443
 40
0.4956576428
 40
0.744934943
 40
1.0
 40
1.0
 40
1.0
 40
1.0
 10
268.4525148817
 20
728.9029633407
 30
0.0
 10
268.4525148817
 20
729.0471413902
 30
0.0
 10
268.4985085036
 20
729.3372679872
 30
0.0
 10
268.6933744604
 20
729.7305635433
 30
0.0
 10
268.9874760985
 20
730.0601551735
 30
0.0
 10
269.2288548801
 20
730.2308740108
 30
0.0
 10
269.3573027076
 20
730.3050355188
 30
0.0
  0
SPLINE
  5
437
100
AcDbEntity
  8
0
100
AcDbSpline
 62
7
  6
BYLAYER
 70
0
 71
3
 72
10
 73
6
 74
0
 42
0.0000001
 43
0.0000001
 44
0.0000000001
 40
0.0
 40
0.0
 40
0.0
 40
0.0
 40
0.5046719114
 40
0.7526128409
 40
1.0
 40
1.0
 40
1.0
 40
1.0
 10
272.5477270559
 20
730.3050355188
 30
0.0
 10
272.7322204643
 20
730.1985151544
 30
0.0
 10
272.9894060485
 20
730.0003150856
 30
0.0
 10
273.2449808678
 20
729.6618576278
 30
0.0
 10
273.3363125642
 20
729.4717000174
 30
0.0
 10
273.3711228617
 20
729.3732435771
 30
0.0
  0
SPLINE
  5
438
100
AcDbEntity
  8
0
100
AcDbSpline
 62
7
  6
BYLAYER
 70
0
 71
3
 72
11
 73
7
 74
0
 42
0.0000001
 43
0.0000001
 44
0.0000000001
 40
0.0
 40
0.0
 40
0.0
 40
0.0
 40
0.2433553771
 40
0.5000066983
 40
0.7566556155
 40
1.0
 40
1.0
 40
1.0
 40
1.0
 10
269.3573027076
 20
730.3050355188
 30
0.0
 10
269.590058266
 20
730.4394208452
 30
0.0
 10
270.1153089002
 20
730.6366236601
 30
0.0
 10
270.9525078949
 20
730.730313532
 30
0.0
 10
271.7896943906
 20
730.6366255778
 30
0.0
 10
272.3149328495
 20
730.4394362767
 30
0.0
 10
272.5476808742
 20
730.3050621819
 30
0.0
  0
SPLINE
  5
439
100
AcDbEntity
  8
0
100
AcDbSpline
 62
7
  6
BYLAYER
 70
0
 71
3
 72
9
 73
5
 74
0
 42
0.0000001
 43
0.0000001
 44
0.0000000001
 40
0.0
 40
0.0
 40
0.0
 40
0.0
 40
0.2291142508
 40
1.0
 40
1.0
 40
1.0
 40
1.0
 10
269.9401701269
 20
730.1971749412
 30
0.0
 10
269.9522688324
 20
730.2041600903
 30
0.0
 10
270.0077559789
 20
730.229935692
 30
0.0
 10
270.069941357
 20
730.2394501434
 30
0.0
 10
270.1169465174
 20
730.2394502564
 30
0.0
  0
SPLINE
  5
43A
100
AcDbEntity
  8
0
100
AcDbSpline
 62
7
  6
BYLAYER
 70
0
 71
3
 72
9
 73
5
 74
0
 42
0.0000001
 43
0.0000001
 44
0.0000000001
 40
0.0
 40
0.0
 40
0.0
 40
0.0
 40
0.4492438796
 40
1.0
 40
1.0
 40
1.0
 40
1.0
 10
269.8161481631
 20
730.0657852822
 30
0.0
 10
269.8161480227
 20
730.0852589079
 30
0.0
 10
269.8331695029
 20
730.1287126918
 30
0.0
 10
269.868695268
 20
730.1559091584
 30
0.0
 10
269.8893707318
 20
730.1678460718
 30
0.0
  0
SPLINE
  5
43B
100
AcDbEntity
  8
0
100
AcDbSpline
 62
7
  6
BYLAYER
 70
0
 71
3
 72
9
 73
5
 74
0
 42
0.0000001
 43
0.0000001
 44
0.0000000001
 40
0.0
 40
0.0
 40
0.0
 40
0.0
 40
0.5507565647
 40
1.0
 40
1.0
 40
1.0
 40
1.0
 10
271.9729804681
 20
729.2276782715
 30
0.0
 10
271.9936561164
 20
729.2157414504
 30
0.0
 10
272.029182211
 20
729.1885451942
 30
0.0
 10
272.0462043684
 20
729.1450915173
 30
0.0
 10
272.0462045088
 20
729.1256178339
 30
0.0
  0
SPLINE
  5
43C
100
AcDbEntity
  8
0
100
AcDbSpline
 62
7
  6
BYLAYER
 70
0
 71
3
 72
10
 73
6
 74
0
 42
0.0000001
 43
0.0000001
 44
0.0000000001
 40
0.0
 40
0.0
 40
0.0
 40
0.0
 40
0.2183774546
 40
0.4523105175
 40
1.0
 40
1.0
 40
1.0
 40
1.0
 10
271.5294568633
 20
729.5833834084
 30
0.0
 10
271.5294569777
 20
729.5675181118
 30
0.0
 10
271.5353336328
 20
729.5344294664
 30
0.0
 10
271.5704975351
 20
729.4698045232
 30
0.0
 10
271.6170375174
 20
729.4331773809
 30
0.0
 10
271.6514969311
 20
729.4132826792
 30
0.0
  0
SPLINE
  5
43D
100
AcDbEntity
  8
0
100
AcDbSpline
 62
7
  6
BYLAYER
 70
0
 71
3
 72
10
 73
6
 74
0
 42
0.0000001
 43
0.0000001
 44
0.0000000001
 40
0.0
 40
0.0
 40
0.0
 40
0.0
 40
0.547689002
 40
0.7816220466
 40
1.0
 40
1.0
 40
1.0
 40
1.0
 10
270.2535352861
 20
729.4132793191
 30
0.0
 10
270.2879943924
 20
729.4331741747
 30
0.0
 10
270.3345338915
 20
729.4698015732
 30
0.0
 10
270.3696968591
 20
729.5344267206
 30
0.0
 10
270.3755730147
 20
729.5675153636
 30
0.0
 10
270.3755729003
 20
729.5833806348
 30
0.0
  0
SPLINE
  5
43E
100
AcDbEntity
  8
0
100
AcDbSpline
 62
7
  6
BYLAYER
 70
0
 71
3
 72
9
 73
5
 74
0
 42
0.0000001
 43
0.0000001
 44
0.0000000001
 40
0.0
 40
0.0
 40
0.0
 40
0.0
 40
0.4492438796
 40
1.0
 40
1.0
 40
1.0
 40
1.0
 10
269.8374934888
 20
729.1132929371
 30
0.0
 10
269.8374933483
 20
729.1327665628
 30
0.0
 10
269.8545148285
 20
729.1762203467
 30
0.0
 10
269.8900405936
 20
729.2034168133
 30
0.0
 10
269.9107160575
 20
729.2153537267
 30
0.0
  0
SPLINE
  5
43F
100
AcDbEntity
  8
0
100
AcDbSpline
 62
7
  6
BYLAYER
 70
0
 71
3
 72
20
 73
16
 74
0
 42
0.0000001
 43
0.0000001
 44
0.0000000001
 40
0.0
 40
0.0
 40
0.0
 40
0.0
 40
0.1382024044
 40
0.2912933923
 40
0.4443860451
 40
0.5162950851
 40
0.5829391926
 40
0.6433703889
 40
0.697431193
 40
0.7460557978
 40
0.7914672403
 40
0.836879028
 40
0.8855027762
 40
0.9395691098
 40
1.0
 40
1.0
 40
1.0
 40
1.0
 10
269.7740102163
 20
728.9029760973
 30
0.0
 10
269.9413130345
 20
728.8063859553
 30
0.0
 10
270.3304934472
 20
728.6654280486
 30
0.0
 10
270.9521453671
 20
728.5978402455
 30
0.0
 10
271.4829102141
 20
728.6554723431
 30
0.0
 10
271.8739620477
 20
728.7742685447
 30
0.0
 10
272.1271103072
 20
728.8921435796
 30
0.0
 10
272.3368302346
 20
729.0365534348
 30
0.0
 10
272.4954000818
 20
729.2032268383
 30
0.0
 10
272.5957334274
 20
729.3876864508
 30
0.0
 10
272.6304896965
 20
729.5833762008
 30
0.0
 10
272.5957413468
 20
729.7790626394
 30
0.0
 10
272.4954077766
 20
729.9635436219
 30
0.0
 10
272.3368776584
 20
730.1301887283
 30
0.0
 10
272.2041749911
 20
730.2215525862
 30
0.0
 10
272.1310195472
 20
730.263787946
 30
0.0
  0
SPLINE
  5
440
100
AcDbEntity
  8
0
100
AcDbSpline
 62
7
  6
BYLAYER
 70
0
 71
3
 72
9
 73
5
 74
0
 42
0.0000001
 43
0.0000001
 44
0.0000000001
 40
0.0
 40
0.0
 40
0.0
 40
0.0
 40
0.2381771254
 40
1.0
 40
1.0
 40
1.0
 40
1.0
 10
269.1847552887
 20
727.882352956
 30
0.0
 10
269.2292754703
 20
727.8566497987
 30
0.0
 10
269.4197294143
 20
727.754885521
 30
0.0
 10
269.6223068869
 20
727.6765727758
 30
0.0
 10
269.7795057598
 20
727.6283510627
 30
0.0
  0
SPLINE
  5
441
100
AcDbEntity
  8
0
100
AcDbSpline
 62
7
  6
BYLAYER
 70
0
 71
3
 72
9
 73
5
 74
0
 42
0.0000001
 43
0.0000001
 44
0.0000000001
 40
0.0
 40
0.0
 40
0.0
 40
0.0
 40
0.2439379628
 40
1.0
 40
1.0
 40
1.0
 40
1.0
 10
269.9427218912
 20
727.5825885741
 30
0.0
 10
270.0254108585
 20
727.5615117163
 30
0.0
 10
270.36735427
 20
727.487039799
 30
0.0
 10
270.7188411159
 20
727.4578334935
 30
0.0
 10
270.9833153351
 20
727.4597213902
 30
0.0
  0
SPLINE
  5
442
100
AcDbEntity
  8
0
100
AcDbSpline
 62
7
  6
BYLAYER
 70
0
 71
3
 72
20
 73
16
 74
0
 42
0.0000001
 43
0.0000001
 44
0.0000000001
 40
0.0
 40
0.0
 40
0.0
 40
0.0
 40
0.1382024044
 40
0.2912933923
 40
0.4443860451
 40
0.5162950851
 40
0.5829391926
 40
0.6433703889
 40
0.697431193
 40
0.7460557978
 40
0.7914672403
 40
0.836879028
 40
0.8855027762
 40
0.9395691098
 40
1.0
 40
1.0
 40
1.0
 40
1.0
 10
272.1310195472
 20
730.263787946
 30
0.0
 10
271.963716729
 20
730.360378088
 30
0.0
 10
271.5745363163
 20
730.5013359947
 30
0.0
 10
270.9528843964
 20
730.5689237978
 30
0.0
 10
270.4221195493
 20
730.5112917002
 30
0.0
 10
270.0310677158
 20
730.3924954986
 30
0.0
 10
269.7779194562
 20
730.2746204636
 30
0.0
 10
269.5681995289
 20
730.1302106085
 30
0.0
 10
269.4096296817
 20
729.963537205
 30
0.0
 10
269.3092963361
 20
729.7790775924
 30
0.0
 10
269.2745400669
 20
729.5833878425
 30
0.0
 10
269.3092884167
 20
729.3877014039
 30
0.0
 10
269.4096219868
 20
729.2032204214
 30
0.0
 10
269.5681521051
 20
729.036575315
 30
0.0
 10
269.7008547724
 20
728.945211457
 30
0.0
 10
269.7740102163
 20
728.9029760973
 30
0.0
  0
SPLINE
  5
443
100
AcDbEntity
  8
0
100
AcDbSpline
 62
7
  6
BYLAYER
 70
0
 71
3
 72
9
 73
5
 74
0
 42
0.0000001
 43
0.0000001
 44
0.0000000001
 40
0.0
 40
0.0
 40
0.0
 40
0.0
 40
0.5507565647
 40
1.0
 40
1.0
 40
1.0
 40
1.0
 10
271.9943122341
 20
730.1555315437
 30
0.0
 10
272.0149878824
 20
730.1435947226
 30
0.0
 10
272.0505139769
 20
730.1163984664
 30
0.0
 10
272.0675361344
 20
730.0729447895
 30
0.0
 10
272.0675362748
 20
730.0534711061
 30
0.0
  0
SPLINE
  5
444
100
AcDbEntity
  8
0
100
AcDbSpline
 62
7
  6
BYLAYER
 70
0
 71
3
 72
9
 73
5
 74
0
 42
0.0000001
 43
0.0000001
 44
0.0000000001
 40
0.0
 40
0.0
 40
0.0
 40
0.0
 40
0.2671440672
 40
1.0
 40
1.0
 40
1.0
 40
1.0
 10
271.7667354158
 20
730.2271346343
 30
0.0
 10
271.7830143727
 20
730.2271346734
 30
0.0
 10
271.8437591426
 20
730.2236821899
 30
0.0
 10
271.9048372009
 20
730.2071888095
 30
0.0
 10
271.9435124159
 20
730.1848601689
 30
0.0
  0
SPLINE
  5
445
100
AcDbEntity
  8
0
100
AcDbSpline
 62
7
  6
BYLAYER
 70
0
 71
3
 72
9
 73
5
 74
0
 42
0.0000001
 43
0.0000001
 44
0.0000000001
 40
0.0
 40
0.0
 40
0.0
 40
0.0
 40
0.2291142508
 40
1.0
 40
1.0
 40
1.0
 40
1.0
 10
271.5899590254
 20
730.184859319
 30
0.0
 10
271.6020577308
 20
730.1918444682
 30
0.0
 10
271.6575448773
 20
730.2176200699
 30
0.0
 10
271.7197302554
 20
730.2271345213
 30
0.0
 10
271.7667354158
 20
730.2271346343
 30
0.0
  0
SPLINE
  5
446
100
AcDbEntity
  8
0
100
AcDbSpline
 62
7
  6
BYLAYER
 70
0
 71
3
 72
11
 73
7
 74
0
 42
0.0000001
 43
0.0000001
 44
0.0000000001
 40
0.0
 40
0.0
 40
0.0
 40
0.0
 40
0.2177699877
 40
0.4509516571
 40
0.7101928879
 40
1.0
 40
1.0
 40
1.0
 40
1.0
 10
268.4525195521
 20
728.9029633406
 30
0.0
 10
268.4525110933
 20
728.8077458227
 30
0.0
 10
268.4876645994
 20
728.6092386341
 30
0.0
 10
268.6381836013
 20
728.332781752
 30
0.0
 10
268.8759598115
 20
728.0827241919
 30
0.0
 10
269.0750162988
 20
727.9457093581
 30
0.0
 10
269.1847552887
 20
727.882352956
 30
0.0
  0
SPLINE
  5
447
100
AcDbEntity
  8
0
100
AcDbSpline
 62
7
  6
BYLAYER
 70
0
 71
3
 72
9
 73
5
 74
0
 42
0.0000001
 43
0.0000001
 44
0.0000000001
 40
0.0
 40
0.0
 40
0.0
 40
0.0
 40
0.5255663101
 40
1.0
 40
1.0
 40
1.0
 40
1.0
 10
270.9525124798
 20
729.916474868
 30
0.0
 10
271.0060125948
 20
729.9164749966
 30
0.0
 10
271.1080816243
 20
729.927539843
 30
0.0
 10
271.2053149847
 20
729.9627863042
 30
0.0
 10
271.2471397968
 20
729.9869337266
 30
0.0
  0
SPLINE
  5
448
100
AcDbEntity
  8
0
100
AcDbSpline
 62
7
  6
BYLAYER
 70
0
 71
3
 72
9
 73
5
 74
0
 42
0.0000001
 43
0.0000001
 44
0.0000000001
 40
0.0
 40
0.0
 40
0.0
 40
0.0
 40
0.4744342232
 40
1.0
 40
1.0
 40
1.0
 40
1.0
 10
270.6578841462
 20
729.9869323104
 30
0.0
 10
270.6997092675
 20
729.9627851116
 30
0.0
 10
270.7969430105
 20
729.9275391335
 30
0.0
 10
270.8990123063
 20
729.9164747394
 30
0.0
 10
270.9525124798
 20
729.916474868
 30
0.0
  0
SPLINE
  5
449
100
AcDbEntity
  8
0
100
AcDbSpline
 62
7
  6
BYLAYER
 70
0
 71
3
 72
9
 73
5
 74
0
 42
0.0000001
 43
0.0000001
 44
0.0000000001
 40
0.0
 40
0.0
 40
0.0
 40
0.0
 40
0.2671440672
 40
1.0
 40
1.0
 40
1.0
 40
1.0
 10
270.1169465174
 20
730.2394502564
 30
0.0
 10
270.1332254743
 20
730.2394502955
 30
0.0
 10
270.1939702441
 20
730.2359978121
 30
0.0
 10
270.2550483025
 20
730.2195044317
 30
0.0
 10
270.2937235175
 20
730.197175791
 30
0.0
  0
SPLINE
  5
44A
100
AcDbEntity
  8
0
100
AcDbSpline
 62
7
  6
BYLAYER
 70
0
 71
3
 72
9
 73
5
 74
0
 42
0.0000001
 43
0.0000001
 44
0.0000000001
 40
0.0
 40
0.0
 40
0.0
 40
0.0
 40
0.2671440672
 40
1.0
 40
1.0
 40
1.0
 40
1.0
 10
285.694708301
 20
719.9583328095
 30
0.0
 10
285.678429344
 20
719.9583327704
 30
0.0
 10
285.6176845742
 20
719.9617852539
 30
0.0
 10
285.5566065159
 20
719.9782786343
 30
0.0
 10
285.5179313008
 20
720.0006072749
 30
0.0
  0
SPLINE
  5
44B
100
AcDbEntity
  8
0
100
AcDbSpline
 62
7
  6
BYLAYER
 70
0
 71
3
 72
9
 73
5
 74
0
 42
0.0000001
 43
0.0000001
 44
0.0000000001
 40
0.0
 40
0.0
 40
0.0
 40
0.0
 40
0.2291142508
 40
1.0
 40
1.0
 40
1.0
 40
1.0
 10
285.8714846914
 20
720.0006081248
 30
0.0
 10
285.859385986
 20
719.9936229756
 30
0.0
 10
285.8038988395
 20
719.9678473739
 30
0.0
 10
285.7417134613
 20
719.9583329225
 30
0.0
 10
285.694708301
 20
719.9583328095
 30
0.0
  0
SPLINE
  5
44C
100
AcDbEntity
  8
0
100
AcDbSpline
 62
7
  6
BYLAYER
 70
0
 71
3
 72
9
 73
5
 74
0
 42
0.0000001
 43
0.0000001
 44
0.0000000001
 40
0.0
 40
0.0
 40
0.0
 40
0.0
 40
0.5255663101
 40
1.0
 40
1.0
 40
1.0
 40
1.0
 10
286.508931237
 20
720.2689925758
 30
0.0
 10
286.455431122
 20
720.2689924472
 30
0.0
 10
286.3533620925
 20
720.2579276008
 30
0.0
 10
286.2561287321
 20
720.2226811396
 30
0.0
 10
286.21430392
 20
720.1985337172
 30
0.0
  0
SPLINE
  5
44D
100
AcDbEntity
  8
0
100
AcDbSpline
 62
7
  6
BYLAYER
 70
0
 71
3
 72
9
 73
5
 74
0
 42
0.0000001
 43
0.0000001
 44
0.0000000001
 40
0.0
 40
0.0
 40
0.0
 40
0.0
 40
0.4744342232
 40
1.0
 40
1.0
 40
1.0
 40
1.0
 10
286.8035595706
 20
720.1985351335
 30
0.0
 10
286.7617344493
 20
720.2226823322
 30
0.0
 10
286.6645007063
 20
720.2579283103
 30
0.0
 10
286.5624314104
 20
720.2689927044
 30
0.0
 10
286.508931237
 20
720.2689925758
 30
0.0
  0
SPLINE
  5
44E
100
AcDbEntity
  8
0
100
AcDbSpline
 62
7
  6
BYLAYER
 70
0
 71
3
 72
9
 73
5
 74
0
 42
0.0000001
 43
0.0000001
 44
0.0000000001
 40
0.0
 40
0.0
 40
0.0
 40
0.0
 40
0.2671440672
 40
1.0
 40
1.0
 40
1.0
 40
1.0
 10
287.3018201078
 20
719.9706562603
 30
0.0
 10
287.2855411509
 20
719.9706562212
 30
0.0
 10
287.224796381
 20
719.9741087046
 30
0.0
 10
287.1637183227
 20
719.9906020851
 30
0.0
 10
287.1250431077
 20
720.0129307257
 30
0.0
  0
SPLINE
  5
44F
100
AcDbEntity
  8
0
100
AcDbSpline
 62
7
  6
BYLAYER
 70
0
 71
3
 72
9
 73
5
 74
0
 42
0.0000001
 43
0.0000001
 44
0.0000000001
 40
0.0
 40
0.0
 40
0.0
 40
0.0
 40
0.2291142508
 40
1.0
 40
1.0
 40
1.0
 40
1.0
 10
287.4785964982
 20
720.0129315756
 30
0.0
 10
287.4664977928
 20
720.0059464264
 30
0.0
 10
287.4110106463
 20
719.9801708247
 30
0.0
 10
287.3488252682
 20
719.9706563733
 30
0.0
 10
287.3018201078
 20
719.9706562603
 30
0.0
  0
SPLINE
  5
450
100
AcDbEntity
  8
0
100
AcDbSpline
 62
7
  6
BYLAYER
 70
0
 71
3
 72
9
 73
5
 74
0
 42
0.0000001
 43
0.0000001
 44
0.0000000001
 40
0.0
 40
0.0
 40
0.0
 40
0.0
 40
0.4492438796
 40
1.0
 40
1.0
 40
1.0
 40
1.0
 10
287.6026184621
 20
720.1443212345
 30
0.0
 10
287.6026186025
 20
720.1248476088
 30
0.0
 10
287.5855971223
 20
720.0813938249
 30
0.0
 10
287.5500713572
 20
720.0541973583
 30
0.0
 10
287.5293958934
 20
720.0422604449
 30
0.0
  0
SPLINE
  5
451
100
AcDbEntity
  8
0
100
AcDbSpline
 62
7
  6
BYLAYER
 70
0
 71
3
 72
10
 73
6
 74
0
 42
0.0000001
 43
0.0000001
 44
0.0000000001
 40
0.0
 40
0.0
 40
0.0
 40
0.0
 40
0.547689002
 40
0.7816220466
 40
1.0
 40
1.0
 40
1.0
 40
1.0
 10
287.2079084307
 20
720.7721881247
 30
0.0
 10
287.1734493244
 20
720.7522932691
 30
0.0
 10
287.1269098253
 20
720.7156658706
 30
0.0
 10
287.0917468577
 20
720.6510407232
 30
0.0
 10
287.0858707021
 20
720.6179520802
 30
0.0
 10
287.0858708165
 20
720.602086809
 30
0.0
  0
SPLINE
  5
452
100
AcDbEntity
  8
0
100
AcDbSpline
 62
7
  6
BYLAYER
 70
0
 71
3
 72
9
 73
5
 74
0
 42
0.0000001
 43
0.0000001
 44
0.0000000001
 40
0.0
 40
0.0
 40
0.0
 40
0.0
 40
0.4492438796
 40
1.0
 40
1.0
 40
1.0
 40
1.0
 10
287.623950228
 20
721.0721745067
 30
0.0
 10
287.6239503685
 20
721.052700881
 30
0.0
 10
287.6069288882
 20
721.0092470971
 30
0.0
 10
287.5714031231
 20
720.9820506305
 30
0.0
 10
287.5507276593
 20
720.9701137171
 30
0.0
  0
SPLINE
  5
453
100
AcDbEntity
  8
0
100
AcDbSpline
 62
7
  6
BYLAYER
 70
0
 71
3
 72
9
 73
5
 74
0
 42
0.0000001
 43
0.0000001
 44
0.0000000001
 40
0.0
 40
0.0
 40
0.0
 40
0.0
 40
0.5507565647
 40
1.0
 40
1.0
 40
1.0
 40
1.0
 10
285.445786157
 20
720.9824282452
 30
0.0
 10
285.4251105088
 20
720.9943650663
 30
0.0
 10
285.3895844142
 20
721.0215613226
 30
0.0
 10
285.3725622568
 20
721.0650149994
 30
0.0
 10
285.3725621163
 20
721.0844886828
 30
0.0
  0
SPLINE
  5
454
100
AcDbEntity
  8
0
100
AcDbSpline
 62
7
  6
BYLAYER
 70
0
 71
3
 72
10
 73
6
 74
0
 42
0.0000001
 43
0.0000001
 44
0.0000000001
 40
0.0
 40
0.0
 40
0.0
 40
0.0
 40
0.2183774546
 40
0.4523105175
 40
1.0
 40
1.0
 40
1.0
 40
1.0
 10
285.9319868535
 20
720.6020840354
 30
0.0
 10
285.9319867391
 20
720.6179493319
 30
0.0
 10
285.926110084
 20
720.6510379774
 30
0.0
 10
285.8909461818
 20
720.7156629206
 30
0.0
 10
285.8444061995
 20
720.7522900628
 30
0.0
 10
285.8099467857
 20
720.7721847646
 30
0.0
  0
SPLINE
  5
455
100
AcDbEntity
  8
0
100
AcDbSpline
 62
7
  6
BYLAYER
 70
0
 71
3
 72
9
 73
5
 74
0
 42
0.0000001
 43
0.0000001
 44
0.0000000001
 40
0.0
 40
0.0
 40
0.0
 40
0.0
 40
0.5507565647
 40
1.0
 40
1.0
 40
1.0
 40
1.0
 10
285.4671314827
 20
720.0299359001
 30
0.0
 10
285.4464558344
 20
720.0418727212
 30
0.0
 10
285.4109297399
 20
720.0690689774
 30
0.0
 10
285.3939075824
 20
720.1125226543
 30
0.0
 10
285.393907442
 20
720.1319963377
 30
0.0
  0
SPLINE
  5
456
100
AcDbEntity
  8
0
100
AcDbSpline
 62
7
  6
BYLAYER
 70
0
 71
3
 72
11
 73
7
 74
0
 42
0.0000001
 43
0.0000001
 44
0.0000000001
 40
0.0
 40
0.0
 40
0.0
 40
0.0
 40
0.2898080169
 40
0.5490504853
 40
0.7822322469
 40
1.0
 40
1.0
 40
1.0
 40
1.0
 10
284.7411692419
 20
718.2206376757
 30
0.0
 10
284.6314299909
 20
718.2839942285
 30
0.0
 10
284.4323728341
 20
718.421009551
 30
0.0
 10
284.1945970194
 20
718.6710684567
 30
0.0
 10
284.0440788107
 20
718.9475252077
 30
0.0
 10
284.0089270794
 20
719.1460315623
 30
0.0
 10
284.0089358741
 20
719.2412480325
 30
0.0
  0
SPLINE
  5
457
100
AcDbEntity
  8
0
100
AcDbSpline
 62
7
  6
BYLAYER
 70
0
 71
3
 72
17
 73
13
 74
0
 42
0.0000001
 43
0.0000001
 44
0.0000000001
 40
0.0
 40
0.0
 40
0.0
 40
0.0
 40
0.0428597516
 40
0.0874894245
 40
0.1353236802
 40
0.187288364
 40
0.3045526165
 40
0.4382233478
 40
0.5825693394
 40
0.729723565
 40
0.871313695
 40
1.0
 40
1.0
 40
1.0
 40
1.0
 10
289.0089217959
 20
719.2412480883
 30
0.0
 10
289.0089152224
 20
719.1700793617
 30
0.0
 10
288.9899042704
 20
719.0241822344
 30
0.0
 10
288.9062197424
 20
718.8135289948
 30
0.0
 10
288.7704532738
 20
718.6138095593
 30
0.0
 10
288.5148473853
 20
718.3573105858
 30
0.0
 10
288.0793407726
 20
718.0921910444
 30
0.0
 10
287.4531314578
 20
717.8830385278
 30
0.0
 10
286.7504048507
 20
717.7842971176
 30
0.0
 10
286.0281142982
 20
717.8042804308
 30
0.0
 10
285.3452303941
 20
717.9409257288
 30
0.0
 10
284.9262260069
 20
718.1137975197
 30
0.0
 10
284.7411692419
 20
718.2206376757
 30
0.0
  0
SPLINE
  5
458
100
AcDbEntity
  8
0
100
AcDbSpline
 62
7
  6
BYLAYER
 70
0
 71
3
 72
11
 73
7
 74
0
 42
0.0000001
 43
0.0000001
 44
0.0000000001
 40
0.0
 40
0.0
 40
0.0
 40
0.0
 40
0.247942443
 40
0.4956576428
 40
0.744934943
 40
1.0
 40
1.0
 40
1.0
 40
1.0
 10
284.008928835
 20
719.9216667413
 30
0.0
 10
284.008928835
 20
720.0658447907
 30
0.0
 10
284.0549224568
 20
720.3559713877
 30
0.0
 10
284.2497884137
 20
720.7492669438
 30
0.0
 10
284.5438900518
 20
721.0788585741
 30
0.0
 10
284.7852688334
 20
721.2495774113
 30
0.0
 10
284.9137166608
 20
721.3237389193
 30
0.0
  0
SPLINE
  5
459
100
AcDbEntity
  8
0
100
AcDbSpline
 62
7
  6
BYLAYER
 70
0
 71
3
 72
11
 73
7
 74
0
 42
0.0000001
 43
0.0000001
 44
0.0000000001
 40
0.0
 40
0.0
 40
0.0
 40
0.0
 40
0.2550648906
 40
0.5043400343
 40
0.7520505207
 40
1.0
 40
1.0
 40
1.0
 40
1.0
 10
288.1041410092
 20
721.3237389193
 30
0.0
 10
288.2325887843
 20
721.2495774415
 30
0.0
 10
288.4739661976
 20
721.0788588703
 30
0.0
 10
288.768065836
 20
720.7492712967
 30
0.0
 10
288.9629358375
 20
720.3559774921
 30
0.0
 10
289.008928835
 20
720.0658489176
 30
0.0
 10
289.008928835
 20
719.9216667413
 30
0.0
  0
SPLINE
  5
45A
100
AcDbEntity
  8
0
100
AcDbSpline
 62
7
  6
BYLAYER
 70
0
 71
3
 72
11
 73
7
 74
0
 42
0.0000001
 43
0.0000001
 44
0.0000000001
 40
0.0
 40
0.0
 40
0.0
 40
0.0
 40
0.2433553771
 40
0.5000066983
 40
0.7566556155
 40
1.0
 40
1.0
 40
1.0
 40
1.0
 10
284.9137166608
 20
721.3237389193
 30
0.0
 10
285.1464722192
 20
721.4581242458
 30
0.0
 10
285.6717228535
 20
721.6553270607
 30
0.0
 10
286.5089218481
 20
721.7490169326
 30
0.0
 10
287.3461083438
 20
721.6553289783
 30
0.0
 10
287.8713468027
 20
721.4581396772
 30
0.0
 10
288.1040948274
 20
721.3237655825
 30
0.0
  0
SPLINE
  5
45B
100
AcDbEntity
  8
0
100
AcDbSpline
 62
7
  6
BYLAYER
 70
0
 71
3
 72
9
 73
5
 74
0
 42
0.0000001
 43
0.0000001
 44
0.0000000001
 40
0.0
 40
0.0
 40
0.0
 40
0.0
 40
0.2291142508
 40
1.0
 40
1.0
 40
1.0
 40
1.0
 10
285.4965840802
 20
721.2158783417
 30
0.0
 10
285.5086827856
 20
721.2228634909
 30
0.0
 10
285.5641699321
 20
721.2486390925
 30
0.0
 10
285.6263553102
 20
721.258153544
 30
0.0
 10
285.6733604706
 20
721.2581536569
 30
0.0
  0
SPLINE
  5
45C
100
AcDbEntity
  8
0
100
AcDbSpline
 62
7
  6
BYLAYER
 70
0
 71
3
 72
9
 73
5
 74
0
 42
0.0000001
 43
0.0000001
 44
0.0000000001
 40
0.0
 40
0.0
 40
0.0
 40
0.0
 40
0.4492438796
 40
1.0
 40
1.0
 40
1.0
 40
1.0
 10
285.3725621163
 20
721.0844886828
 30
0.0
 10
285.3725619759
 20
721.1039623085
 30
0.0
 10
285.3895834561
 20
721.1474160924
 30
0.0
 10
285.4251092212
 20
721.174612559
 30
0.0
 10
285.445784685
 20
721.1865494723
 30
0.0
  0
SPLINE
  5
45D
100
AcDbEntity
  8
0
100
AcDbSpline
 62
7
  6
BYLAYER
 70
0
 71
3
 72
9
 73
5
 74
0
 42
0.0000001
 43
0.0000001
 44
0.0000000001
 40
0.0
 40
0.0
 40
0.0
 40
0.0
 40
0.5507565647
 40
1.0
 40
1.0
 40
1.0
 40
1.0
 10
287.5293944214
 20
720.246381672
 30
0.0
 10
287.5500700696
 20
720.234444851
 30
0.0
 10
287.5855961642
 20
720.2072485947
 30
0.0
 10
287.6026183216
 20
720.1637949179
 30
0.0
 10
287.6026184621
 20
720.1443212345
 30
0.0
  0
SPLINE
  5
45E
100
AcDbEntity
  8
0
100
AcDbSpline
 62
7
  6
BYLAYER
 70
0
 71
3
 72
10
 73
6
 74
0
 42
0.0000001
 43
0.0000001
 44
0.0000000001
 40
0.0
 40
0.0
 40
0.0
 40
0.0
 40
0.2183774546
 40
0.4523105175
 40
1.0
 40
1.0
 40
1.0
 40
1.0
 10
287.0858708165
 20
720.602086809
 30
0.0
 10
287.0858709309
 20
720.5862215124
 30
0.0
 10
287.0917475861
 20
720.5531328669
 30
0.0
 10
287.1269114883
 20
720.4885079237
 30
0.0
 10
287.1734514706
 20
720.4518807815
 30
0.0
 10
287.2079108843
 20
720.4319860797
 30
0.0
  0
SPLINE
  5
45F
100
AcDbEntity
  8
0
100
AcDbSpline
 62
7
  6
BYLAYER
 70
0
 71
3
 72
10
 73
6
 74
0
 42
0.0000001
 43
0.0000001
 44
0.0000000001
 40
0.0
 40
0.0
 40
0.0
 40
0.0
 40
0.547689002
 40
0.7816220466
 40
1.0
 40
1.0
 40
1.0
 40
1.0
 10
285.8099492393
 20
720.4319827197
 30
0.0
 10
285.8444083456
 20
720.4518775752
 30
0.0
 10
285.8909478447
 20
720.4885049737
 30
0.0
 10
285.9261108123
 20
720.5531301211
 30
0.0
 10
285.9319869679
 20
720.5862187641
 30
0.0
 10
285.9319868535
 20
720.6020840354
 30
0.0
  0
SPLINE
  5
460
100
AcDbEntity
  8
0
100
AcDbSpline
 62
7
  6
BYLAYER
 70
0
 71
3
 72
9
 73
5
 74
0
 42
0.0000001
 43
0.0000001
 44
0.0000000001
 40
0.0
 40
0.0
 40
0.0
 40
0.0
 40
0.4492438796
 40
1.0
 40
1.0
 40
1.0
 40
1.0
 10
285.393907442
 20
720.1319963377
 30
0.0
 10
285.3939073016
 20
720.1514699634
 30
0.0
 10
285.4109287818
 20
720.1949237473
 30
0.0
 10
285.4464545469
 20
720.2221202139
 30
0.0
 10
285.4671300107
 20
720.2340571272
 30
0.0
  0
SPLINE
  5
461
100
AcDbEntity
  8
0
100
AcDbSpline
 62
7
  6
BYLAYER
 70
0
 71
3
 72
20
 73
16
 74
0
 42
0.0000001
 43
0.0000001
 44
0.0000000001
 40
0.0
 40
0.0
 40
0.0
 40
0.0
 40
0.1382024044
 40
0.2912933923
 40
0.4443860451
 40
0.5162950851
 40
0.5829391926
 40
0.6433703889
 40
0.697431193
 40
0.7460557978
 40
0.7914672403
 40
0.836879028
 40
0.8855027762
 40
0.9395691098
 40
1.0
 40
1.0
 40
1.0
 40
1.0
 10
285.3304241695
 20
719.9216794978
 30
0.0
 10
285.4977269878
 20
719.8250893559
 30
0.0
 10
285.8869074004
 20
719.6841314491
 30
0.0
 10
286.5085593203
 20
719.616543646
 30
0.0
 10
287.0393241674
 20
719.6741757436
 30
0.0
 10
287.4303760009
 20
719.7929719453
 30
0.0
 10
287.6835242605
 20
719.9108469802
 30
0.0
 10
287.8932441878
 20
720.0552568353
 30
0.0
 10
288.051814035
 20
720.2219302388
 30
0.0
 10
288.1521473806
 20
720.4063898514
 30
0.0
 10
288.1869036498
 20
720.6020796014
 30
0.0
 10
288.1521553
 20
720.7977660399
 30
0.0
 10
288.0518217299
 20
720.9822470224
 30
0.0
 10
287.8932916116
 20
721.1488921288
 30
0.0
 10
287.7605889444
 20
721.2402559868
 30
0.0
 10
287.6874335004
 20
721.2824913466
 30
0.0
  0
SPLINE
  5
462
100
AcDbEntity
  8
0
100
AcDbSpline
 62
7
  6
BYLAYER
 70
0
 71
3
 72
9
 73
5
 74
0
 42
0.0000001
 43
0.0000001
 44
0.0000000001
 40
0.0
 40
0.0
 40
0.0
 40
0.0
 40
0.2381771254
 40
1.0
 40
1.0
 40
1.0
 40
1.0
 10
284.7411692419
 20
718.9010563566
 30
0.0
 10
284.7856894236
 20
718.8753531992
 30
0.0
 10
284.9761433675
 20
718.7735889216
 30
0.0
 10
285.1787208401
 20
718.6952761763
 30
0.0
 10
285.3359197131
 20
718.6470544633
 30
0.0
  0
SPLINE
  5
463
100
AcDbEntity
  8
0
100
AcDbSpline
 62
7
  6
BYLAYER
 70
0
 71
3
 72
11
 73
7
 74
0
 42
0.0000001
 43
0.0000001
 44
0.0000000001
 40
0.0
 40
0.0
 40
0.0
 40
0.0
 40
0.2483932292
 40
0.5039331697
 40
0.7574512933
 40
1.0
 40
1.0
 40
1.0
 40
1.0
 10
285.4991358444
 20
718.6012919746
 30
0.0
 10
285.6816855776
 20
718.5547612838
 30
0.0
 10
286.059695287
 20
718.4887304089
 30
0.0
 10
286.6353883968
 20
718.467308932
 30
0.0
 10
287.2044495399
 20
718.521909196
 30
0.0
 10
287.5719124289
 20
718.6101294749
 30
0.0
 10
287.7466521885
 20
718.6676193608
 30
0.0
  0
SPLINE
  5
464
100
AcDbEntity
  8
0
100
AcDbSpline
 62
7
  6
BYLAYER
 70
0
 71
3
 72
12
 73
8
 74
0
 42
0.0000001
 43
0.0000001
 44
0.0000000001
 40
0.0
 40
0.0
 40
0.0
 40
0.0
 40
0.3018342499
 40
0.5667988852
 40
0.7949349438
 40
0.8991468878
 40
1.0
 40
1.0
 40
1.0
 40
1.0
 10
287.7466521885
 20
718.6676193608
 30
0.0
 10
287.9273071646
 20
718.7270553701
 30
0.0
 10
288.2584142444
 20
718.8680141162
 30
0.0
 10
288.6694599933
 20
719.1624272346
 30
0.0
 10
288.9025576481
 20
719.4691786134
 30
0.0
 10
288.9938825209
 20
719.7284592019
 30
0.0
 10
289.0089185194
 20
719.8581207453
 30
0.0
 10
289.0089241646
 20
719.9216667414
 30
0.0
  0
SPLINE
  5
465
100
AcDbEntity
  8
0
100
AcDbSpline
 62
7
  6
BYLAYER
 70
0
 71
3
 72
20
 73
16
 74
0
 42
0.0000001
 43
0.0000001
 44
0.0000000001
 40
0.0
 40
0.0
 40
0.0
 40
0.0
 40
0.1382024044
 40
0.2912933923
 40
0.4443860451
 40
0.5162950851
 40
0.5829391926
 40
0.6433703889
 40
0.697431193
 40
0.7460557978
 40
0.7914672403
 40
0.836879028
 40
0.8855027762
 40
0.9395691098
 40
1.0
 40
1.0
 40
1.0
 40
1.0
 10
287.6874335004
 20
721.2824913466
 30
0.0
 10
287.5201306822
 20
721.3790814885
 30
0.0
 10
287.1309502695
 20
721.5200393953
 30
0.0
 10
286.5092983496
 20
721.5876271984
 30
0.0
 10
285.9785335026
 20
721.5299951008
 30
0.0
 10
285.587481669
 20
721.4111988991
 30
0.0
 10
285.3343334095
 20
721.2933238642
 30
0.0
 10
285.1246134822
 20
721.1489140091
 30
0.0
 10
284.966043635
 20
720.9822406056
 30
0.0
 10
284.8657102894
 20
720.797780993
 30
0.0
 10
284.8309540202
 20
720.602091243
 30
0.0
 10
284.8657023699
 20
720.4064048045
 30
0.0
 10
284.9660359401
 20
720.2219238219
 30
0.0
 10
285.1245660583
 20
720.0552787156
 30
0.0
 10
285.2572687256
 20
719.9639148576
 30
0.0
 10
285.3304241695
 20
719.9216794978
 30
0.0
  0
SPLINE
  5
466
100
AcDbEntity
  8
0
100
AcDbSpline
 62
7
  6
BYLAYER
 70
0
 71
3
 72
9
 73
5
 74
0
 42
0.0000001
 43
0.0000001
 44
0.0000000001
 40
0.0
 40
0.0
 40
0.0
 40
0.0
 40
0.5507565647
 40
1.0
 40
1.0
 40
1.0
 40
1.0
 10
287.5507261873
 20
721.1742349442
 30
0.0
 10
287.5714018356
 20
721.1622981232
 30
0.0
 10
287.6069279302
 20
721.1351018669
 30
0.0
 10
287.6239500876
 20
721.0916481901
 30
0.0
 10
287.623950228
 20
721.0721745067
 30
0.0
  0
SPLINE
  5
467
100
AcDbEntity
  8
0
100
AcDbSpline
 62
7
  6
BYLAYER
 70
0
 71
3
 72
9
 73
5
 74
0
 42
0.0000001
 43
0.0000001
 44
0.0000000001
 40
0.0
 40
0.0
 40
0.0
 40
0.0
 40
0.2671440672
 40
1.0
 40
1.0
 40
1.0
 40
1.0
 10
287.323149369
 20
721.2458380348
 30
0.0
 10
287.339428326
 20
721.2458380739
 30
0.0
 10
287.4001730958
 20
721.2423855905
 30
0.0
 10
287.4612511542
 20
721.2258922101
 30
0.0
 10
287.4999263692
 20
721.2035635694
 30
0.0
  0
SPLINE
  5
468
100
AcDbEntity
  8
0
100
AcDbSpline
 62
7
  6
BYLAYER
 70
0
 71
3
 72
9
 73
5
 74
0
 42
0.0000001
 43
0.0000001
 44
0.0000000001
 40
0.0
 40
0.0
 40
0.0
 40
0.0
 40
0.2291142508
 40
1.0
 40
1.0
 40
1.0
 40
1.0
 10
287.1463729786
 20
721.2035627196
 30
0.0
 10
287.158471684
 20
721.2105478687
 30
0.0
 10
287.2139588305
 20
721.2363234704
 30
0.0
 10
287.2761442087
 20
721.2458379218
 30
0.0
 10
287.323149369
 20
721.2458380348
 30
0.0
  0
SPLINE
  5
469
100
AcDbEntity
  8
0
100
AcDbSpline
 62
7
  6
BYLAYER
 70
0
 71
3
 72
11
 73
7
 74
0
 42
0.0000001
 43
0.0000001
 44
0.0000000001
 40
0.0
 40
0.0
 40
0.0
 40
0.0
 40
0.2177699877
 40
0.4509516571
 40
0.7101928879
 40
1.0
 40
1.0
 40
1.0
 40
1.0
 10
284.0089335054
 20
719.9216667411
 30
0.0
 10
284.0089250466
 20
719.8264492232
 30
0.0
 10
284.0440785526
 20
719.6279420347
 30
0.0
 10
284.1945975545
 20
719.3514851525
 30
0.0
 10
284.4323737648
 20
719.1014275925
 30
0.0
 10
284.631430252
 20
718.9644127587
 30
0.0
 10
284.7411692419
 20
718.9010563566
 30
0.0
  0
SPLINE
  5
46A
100
AcDbEntity
  8
0
100
AcDbSpline
 62
7
  6
BYLAYER
 70
0
 71
3
 72
9
 73
5
 74
0
 42
0.0000001
 43
0.0000001
 44
0.0000000001
 40
0.0
 40
0.0
 40
0.0
 40
0.0
 40
0.5255663101
 40
1.0
 40
1.0
 40
1.0
 40
1.0
 10
286.508926433
 20
720.9351782686
 30
0.0
 10
286.562426548
 20
720.9351783972
 30
0.0
 10
286.6644955775
 20
720.9462432435
 30
0.0
 10
286.7617289379
 20
720.9814897047
 30
0.0
 10
286.80355375
 20
721.0056371271
 30
0.0
  0
SPLINE
  5
46B
100
AcDbEntity
  8
0
100
AcDbSpline
 62
7
  6
BYLAYER
 70
0
 71
3
 72
9
 73
5
 74
0
 42
0.0000001
 43
0.0000001
 44
0.0000000001
 40
0.0
 40
0.0
 40
0.0
 40
0.0
 40
0.4744342232
 40
1.0
 40
1.0
 40
1.0
 40
1.0
 10
286.2142980994
 20
721.0056357109
 30
0.0
 10
286.2561232207
 20
720.9814885121
 30
0.0
 10
286.3533569637
 20
720.946242534
 30
0.0
 10
286.4554262596
 20
720.93517814
 30
0.0
 10
286.508926433
 20
720.9351782686
 30
0.0
  0
SPLINE
  5
46C
100
AcDbEntity
  8
0
100
AcDbSpline
 62
7
  6
BYLAYER
 70
0
 71
3
 72
9
 73
5
 74
0
 42
0.0000001
 43
0.0000001
 44
0.0000000001
 40
0.0
 40
0.0
 40
0.0
 40
0.0
 40
0.2671440672
 40
1.0
 40
1.0
 40
1.0
 40
1.0
 10
285.6733604706
 20
721.2581536569
 30
0.0
 10
285.6896394275
 20
721.2581536961
 30
0.0
 10
285.7503841974
 20
721.2547012126
 30
0.0
 10
285.8114622557
 20
721.2382078322
 30
0.0
 10
285.8501374707
 20
721.2158791916
 30
0.0
  0
SPLINE
  5
46D
100
AcDbEntity
  8
0
100
AcDbSpline
 62
7
  6
BYLAYER
 70
0
 71
3
 72
9
 73
5
 74
0
 42
0.0000001
 43
0.0000001
 44
0.0000000001
 40
0.0
 40
0.0
 40
0.0
 40
0.0
 40
0.5255657768
 40
1.0
 40
1.0
 40
1.0
 40
1.0
 10
281.7378459957
 20
70.5539377753
 30
0.0
 10
281.6351256627
 20
70.5539375284
 30
0.0
 10
281.4391526147
 20
70.575181165
 30
0.0
 10
281.2524638281
 20
70.6428534429
 30
0.0
 10
281.1721595952
 20
70.6892160646
 30
0.0
  0
SPLINE
  5
46E
100
AcDbEntity
  8
0
100
AcDbSpline
 62
7
  6
BYLAYER
 70
0
 71
3
 72
9
 73
5
 74
0
 42
0.0000001
 43
0.0000001
 44
0.0000000001
 40
0.0
 40
0.0
 40
0.0
 40
0.0
 40
0.4744336899
 40
1.0
 40
1.0
 40
1.0
 40
1.0
 10
282.3035304451
 20
70.6892187841
 30
0.0
 10
282.2232268057
 20
70.642855733
 30
0.0
 10
282.0365387535
 20
70.5751825273
 30
0.0
 10
281.8405662167
 20
70.5539380222
 30
0.0
 10
281.7378459957
 20
70.5539377753
 30
0.0
  0
SPLINE
  5
46F
100
AcDbEntity
  8
0
100
AcDbSpline
 62
7
  6
BYLAYER
 70
0
 71
3
 72
11
 73
7
 74
0
 42
0.0000001
 43
0.0000001
 44
0.0000000001
 40
0.0
 40
0.0
 40
0.0
 40
0.0
 40
0.2068559305
 40
0.4365751433
 40
0.7006923235
 40
1.0
 40
1.0
 40
1.0
 40
1.0
 10
285.827407023
 20
71.2440828732
 30
0.0
 10
285.82663912
 20
71.2656627049
 30
0.0
 10
285.8146744117
 20
71.3112071877
 30
0.0
 10
285.7702635414
 20
71.3709143622
 30
0.0
 10
285.7037704237
 20
71.4215589008
 30
0.0
 10
285.6501149109
 20
71.4466375147
 30
0.0
 10
285.6208271544
 20
71.4575206318
 30
0.0
  0
SPLINE
  5
470
100
AcDbEntity
  8
0
100
AcDbSpline
 62
7
  6
BYLAYER
 70
0
 71
3
 72
15
 73
11
 74
0
 42
0.0000001
 43
0.0000001
 44
0.0000000001
 40
0.0
 40
0.0
 40
0.0
 40
0.0
 40
0.1160876616
 40
0.23944565
 40
0.3682703344
 40
0.5000002978
 40
0.6317302146
 40
0.7605546944
 40
0.8839122652
 40
1.0
 40
1.0
 40
1.0
 40
1.0
 10
283.1803166967
 20
69.1893240495
 30
0.0
 10
283.6092003467
 20
68.941700879
 30
0.0
 10
284.5388731039
 20
68.5068718257
 30
0.0
 10
286.0453060957
 20
68.0465279669
 30
0.0
 10
287.6628207791
 20
67.7652899375
 30
0.0
 10
289.3372426209
 20
67.6707234541
 30
0.0
 10
291.0116643763
 20
67.7652760433
 30
0.0
 10
292.6291785899
 20
68.046499607
 30
0.0
 10
294.1356140711
 20
68.5068268091
 30
0.0
 10
295.0652909048
 20
68.9416432226
 30
0.0
 10
295.494178531
 20
69.1892601309
 30
0.0
  0
SPLINE
  5
471
100
AcDbEntity
  8
0
100
AcDbSpline
 62
7
  6
BYLAYER
 70
0
 71
3
 72
11
 73
7
 74
0
 42
0.0000001
 43
0.0000001
 44
0.0000000001
 40
0.0
 40
0.0
 40
0.0
 40
0.0
 40
0.2727155889
 40
0.526658149
 40
0.7668919009
 40
1.0
 40
1.0
 40
1.0
 40
1.0
 10
295.4942892399
 20
69.1893240495
 30
0.0
 10
295.8969559474
 20
69.4218104283
 30
0.0
 10
296.6407375706
 20
69.9352953655
 30
0.0
 10
297.5496429841
 20
70.8908335509
 30
0.0
 10
298.1578278176
 20
71.9892636523
 30
0.0
 10
298.3212321712
 20
72.7962288067
 30
0.0
 10
298.3350761536
 20
73.193422146
 30
0.0
  0
SPLINE
  5
472
100
AcDbEntity
  8
0
100
AcDbSpline
 62
7
  6
BYLAYER
 70
0
 71
3
 72
9
 73
5
 74
0
 42
0.0000001
 43
0.0000001
 44
0.0000000001
 40
0.0
 40
0.0
 40
0.0
 40
0.0
 40
0.2396039715
 40
1.0
 40
1.0
 40
1.0
 40
1.0
 10
281.4572147979
 20
70.5652331564
 30
0.0
 10
281.5739623207
 20
70.4327733696
 30
0.0
 10
282.0879367421
 20
69.9035288901
 30
0.0
 10
282.6950498512
 20
69.4695010037
 30
0.0
 10
283.1803166967
 20
69.1893240495
 30
0.0
  0
SPLINE
  5
473
100
AcDbEntity
  8
0
100
AcDbSpline
 62
7
  6
BYLAYER
 70
0
 71
3
 72
9
 73
5
 74
0
 42
0.0000001
 43
0.0000001
 44
0.0000000001
 40
0.0
 40
0.0
 40
0.0
 40
0.0
 40
0.5448650672
 40
1.0
 40
1.0
 40
1.0
 40
1.0
 10
271.1795512038
 20
76.3144153197
 30
0.0
 10
271.1230930905
 20
76.3517785026
 30
0.0
 10
271.0265253422
 20
76.4359889576
 30
0.0
 10
270.9830359245
 20
76.5610688555
 30
0.0
 10
270.9830406123
 20
76.6176212571
 30
0.0
  0
LINE
  5
474
100
AcDbEntity
  8
0
100
AcDbLine
 62
7
  6
BYLAYER
 10
271.2487785838
 20
76.2683956682
 11
271.1795512038
 21
76.3144153197
  0
SPLINE
  5
475
100
AcDbEntity
  8
0
100
AcDbSpline
 62
7
  6
BYLAYER
 70
0
 71
3
 72
9
 73
5
 74
0
 42
0.0000001
 43
0.0000001
 44
0.0000000001
 40
0.0
 40
0.0
 40
0.0
 40
0.0
 40
0.5255657768
 40
1.0
 40
1.0
 40
1.0
 40
1.0
 10
292.3425655066
 20
69.9405080966
 30
0.0
 10
292.2398451737
 20
69.9405078497
 30
0.0
 10
292.0438721257
 20
69.9617514863
 30
0.0
 10
291.8571833391
 20
70.0294237642
 30
0.0
 10
291.7768791061
 20
70.0757863859
 30
0.0
  0
SPLINE
  5
476
100
AcDbEntity
  8
0
100
AcDbSpline
 62
7
  6
BYLAYER
 70
0
 71
3
 72
9
 73
5
 74
0
 42
0.0000001
 43
0.0000001
 44
0.0000000001
 40
0.0
 40
0.0
 40
0.0
 40
0.0
 40
0.4744336898
 40
1.0
 40
1.0
 40
1.0
 40
1.0
 10
292.9082499567
 20
70.0757891057
 30
0.0
 10
292.8279463173
 20
70.0294260546
 30
0.0
 10
292.6412582649
 20
69.9617528486
 30
0.0
 10
292.4452857278
 20
69.9405083435
 30
0.0
 10
292.3425655066
 20
69.9405080966
 30
0.0
  0
SPLINE
  5
477
100
AcDbEntity
  8
0
100
AcDbSpline
 62
7
  6
BYLAYER
 70
0
 71
3
 72
11
 73
7
 74
0
 42
0.0000001
 43
0.0000001
 44
0.0000000001
 40
0.0
 40
0.0
 40
0.0
 40
0.0
 40
0.2177164324
 40
0.4509408358
 40
0.7102939719
 40
1.0
 40
1.0
 40
1.0
 40
1.0
 10
302.8884628008
 20
76.0769771716
 30
0.0
 10
302.8884630753
 20
76.0389005205
 30
0.0
 10
302.8743630197
 20
75.9595151553
 30
0.0
 10
302.8142249287
 20
75.8488780555
 30
0.0
 10
302.7190435337
 20
75.748904957
 30
0.0
 10
302.639451488
 20
75.6940673927
 30
0.0
 10
302.5955725258
 20
75.6687340133
 30
0.0
  0
SPLINE
  5
478
100
AcDbEntity
  8
0
100
AcDbSpline
 62
7
  6
BYLAYER
 70
0
 71
3
 72
9
 73
5
 74
0
 42
0.0000001
 43
0.0000001
 44
0.0000000001
 40
0.0
 40
0.0
 40
0.0
 40
0.0
 40
0.2372066285
 40
1.0
 40
1.0
 40
1.0
 40
1.0
 10
270.0882383164
 20
79.8396532871
 30
0.0
 10
270.0841068752
 20
79.844808664
 30
0.0
 10
270.0657839965
 20
79.8658136809
 30
0.0
 10
270.0442374568
 20
79.8838944801
 30
0.0
 10
270.0268302862
 20
79.8960739162
 30
0.0
  0
SPLINE
  5
479
100
AcDbEntity
  8
0
100
AcDbSpline
 62
7
  6
BYLAYER
 70
0
 71
3
 72
9
 73
5
 74
0
 42
0.0000001
 43
0.0000001
 44
0.0000000001
 40
0.0
 40
0.0
 40
0.0
 40
0.0
 40
0.2601874101
 40
1.0
 40
1.0
 40
1.0
 40
1.0
 10
284.9514578608
 20
71.440229725
 30
0.0
 10
284.9332511264
 20
71.4407910232
 30
0.0
 10
284.8634301948
 20
71.445721926
 30
0.0
 10
284.7940560509
 20
71.4615006372
 30
0.0
 10
284.7459268357
 20
71.4806350837
 30
0.0
  0
SPLINE
  5
47A
100
AcDbEntity
  8
0
100
AcDbSpline
 62
7
  6
BYLAYER
 70
0
 71
3
 72
9
 73
5
 74
0
 42
0.0000001
 43
0.0000001
 44
0.0000000001
 40
0.0
 40
0.0
 40
0.0
 40
0.0
 40
0.2412953819
 40
1.0
 40
1.0
 40
1.0
 40
1.0
 10
285.1632730611
 20
71.4677686542
 30
0.0
 10
285.1468330994
 20
71.4626283793
 30
0.0
 10
285.0777066429
 20
71.4445841059
 30
0.0
 10
285.0055921421
 20
71.4385608111
 30
0.0
 10
284.9514578608
 20
71.440229725
 30
0.0
  0
SPLINE
  5
47B
100
AcDbEntity
  8
0
100
AcDbSpline
 62
7
  6
BYLAYER
 70
0
 71
3
 72
9
 73
5
 74
0
 42
0.0000001
 43
0.0000001
 44
0.0000000001
 40
0.0
 40
0.0
 40
0.0
 40
0.0
 40
0.4965566634
 40
1.0
 40
1.0
 40
1.0
 40
1.0
 10
285.6208271544
 20
71.4575206318
 30
0.0
 10
285.548939674
 20
71.484233496
 30
0.0
 10
285.3935745078
 20
71.5099122827
 30
0.0
 10
285.2375156127
 20
71.4908705582
 30
0.0
 10
285.1632730611
 20
71.4677686542
 30
0.0
  0
SPLINE
  5
47C
100
AcDbEntity
  8
0
100
AcDbSpline
 62
7
  6
BYLAYER
 70
0
 71
3
 72
9
 73
5
 74
0
 42
0.0000001
 43
0.0000001
 44
0.0000000001
 40
0.0
 40
0.0
 40
0.0
 40
0.0
 40
0.2671050725
 40
1.0
 40
1.0
 40
1.0
 40
1.0
 10
285.8572781869
 20
71.1137076496
 30
0.0
 10
285.852160588
 20
71.1205638559
 30
0.0
 10
285.8346381115
 20
71.1473608574
 30
0.0
 10
285.8252537097
 20
71.1798632545
 30
0.0
 10
285.825252712
 20
71.2033383493
 30
0.0
  0
SPLINE
  5
47D
100
AcDbEntity
  8
0
100
AcDbSpline
 62
7
  6
BYLAYER
 70
0
 71
3
 72
9
 73
5
 74
0
 42
0.0000001
 43
0.0000001
 44
0.0000000001
 40
0.0
 40
0.0
 40
0.0
 40
0.0
 40
0.2759147208
 40
1.0
 40
1.0
 40
1.0
 40
1.0
 10
285.9716234233
 20
71.0268818461
 30
0.0
 10
285.9595849507
 20
71.0324739212
 30
0.0
 10
285.9170112195
 20
71.0546749758
 30
0.0
 10
285.8781150094
 20
71.0857919113
 30
0.0
 10
285.8572781869
 20
71.1137076496
 30
0.0
  0
SPLINE
  5
47E
100
AcDbEntity
  8
0
100
AcDbSpline
 62
7
  6
BYLAYER
 70
0
 71
3
 72
9
 73
5
 74
0
 42
0.0000001
 43
0.0000001
 44
0.0000000001
 40
0.0
 40
0.0
 40
0.0
 40
0.0
 40
0.2469319429
 40
1.0
 40
1.0
 40
1.0
 40
1.0
 10
289.9224370759
 20
70.5341263625
 30
0.0
 10
289.8705264403
 20
70.5242242452
 30
0.0
 10
289.6596258902
 20
70.4877436844
 30
0.0
 10
289.4462989027
 20
70.4654642149
 30
0.0
 10
289.2853893964
 20
70.456369918
 30
0.0
  0
SPLINE
  5
47F
100
AcDbEntity
  8
0
100
AcDbSpline
 62
7
  6
BYLAYER
 70
0
 71
3
 72
9
 73
5
 74
0
 42
0.0000001
 43
0.0000001
 44
0.0000000001
 40
0.0
 40
0.0
 40
0.0
 40
0.0
 40
0.2439727904
 40
1.0
 40
1.0
 40
1.0
 40
1.0
 10
290.6261522272
 20
70.7250201236
 30
0.0
 10
290.5701859807
 20
70.705339707
 30
0.0
 10
290.3392552315
 20
70.6290762972
 30
0.0
 10
290.102752757
 20
70.5699486558
 30
0.0
 10
289.9224370759
 20
70.5341263625
 30
0.0
  0
SPLINE
  5
480
100
AcDbEntity
  8
0
100
AcDbSpline
 62
7
  6
BYLAYER
 70
0
 71
3
 72
9
 73
5
 74
0
 42
0.0000001
 43
0.0000001
 44
0.0000000001
 40
0.0
 40
0.0
 40
0.0
 40
0.0
 40
0.2413147141
 40
1.0
 40
1.0
 40
1.0
 40
1.0
 10
291.2428114964
 20
70.9984333372
 30
0.0
 10
291.195271806
 20
70.9722036722
 30
0.0
 10
290.9957641383
 20
70.8680722818
 30
0.0
 10
290.7871894017
 20
70.7816485179
 30
0.0
 10
290.6261522272
 20
70.7250201236
 30
0.0
  0
SPLINE
  5
481
100
AcDbEntity
  8
0
100
AcDbSpline
 62
7
  6
BYLAYER
 70
0
 71
3
 72
9
 73
5
 74
0
 42
0.0000001
 43
0.0000001
 44
0.0000000001
 40
0.0
 40
0.0
 40
0.0
 40
0.0
 40
0.4492655925
 40
1.0
 40
1.0
 40
1.0
 40
1.0
 10
291.5666567721
 20
71.3168353632
 30
0.0
 10
291.5470866358
 20
71.2501323461
 30
0.0
 10
291.4543155298
 20
71.1165640844
 30
0.0
 10
291.3201194783
 20
71.0342808537
 30
0.0
 10
291.2428114964
 20
70.9984333372
 30
0.0
  0
SPLINE
  5
482
100
AcDbEntity
  8
0
100
AcDbSpline
 62
7
  6
BYLAYER
 70
0
 71
3
 72
9
 73
5
 74
0
 42
0.0000001
 43
0.0000001
 44
0.0000000001
 40
0.0
 40
0.0
 40
0.0
 40
0.0
 40
0.2568127945
 40
1.0
 40
1.0
 40
1.0
 40
1.0
 10
304.8301278851
 20
78.9744582709
 30
0.0
 10
304.7760955524
 20
78.9691739355
 30
0.0
 10
304.5649205733
 20
78.9599623923
 30
0.0
 10
304.3505295769
 20
78.9928178942
 30
0.0
 10
304.2027443224
 20
79.0461367953
 30
0.0
  0
SPLINE
  5
483
100
AcDbEntity
  8
0
100
AcDbSpline
 62
7
  6
BYLAYER
 70
0
 71
3
 72
9
 73
5
 74
0
 42
0.0000001
 43
0.0000001
 44
0.0000000001
 40
0.0
 40
0.0
 40
0.0
 40
0.0
 40
0.4682831591
 40
1.0
 40
1.0
 40
1.0
 40
1.0
 10
305.3816215592
 20
79.1614304065
 30
0.0
 10
305.3072112134
 20
79.1079404406
 30
0.0
 10
305.1270985413
 20
79.023242305
 30
0.0
 10
304.9336885164
 20
78.9845864494
 30
0.0
 10
304.8301278851
 20
78.9744582709
 30
0.0
  0
SPLINE
  5
484
100
AcDbEntity
  8
0
100
AcDbSpline
 62
7
  6
BYLAYER
 70
0
 71
3
 72
9
 73
5
 74
0
 42
0.0000001
 43
0.0000001
 44
0.0000000001
 40
0.0
 40
0.0
 40
0.0
 40
0.0
 40
0.2389907174
 40
1.0
 40
1.0
 40
1.0
 40
1.0
 10
305.8551887717
 20
79.5174559883
 30
0.0
 10
305.8208961998
 20
79.484949772
 30
0.0
 10
305.6732283923
 20
79.3533592911
 30
0.0
 10
305.5104031826
 20
79.2392324614
 30
0.0
 10
305.3816215592
 20
79.1614304065
 30
0.0
  0
SPLINE
  5
485
100
AcDbEntity
  8
0
100
AcDbSpline
 62
7
  6
BYLAYER
 70
0
 71
3
 72
9
 73
5
 74
0
 42
0.0000001
 43
0.0000001
 44
0.0000000001
 40
0.0
 40
0.0
 40
0.0
 40
0.0
 40
0.23914411
 40
1.0
 40
1.0
 40
1.0
 40
1.0
 10
306.1858253319
 20
79.9237419015
 30
0.0
 10
306.1644087402
 20
79.8878076545
 30
0.0
 10
306.068992161
 20
79.7410528113
 30
0.0
 10
305.9517817585
 20
79.6090172898
 30
0.0
 10
305.8551887717
 20
79.5174559883
 30
0.0
  0
SPLINE
  5
486
100
AcDbEntity
  8
0
100
AcDbSpline
 62
7
  6
BYLAYER
 70
0
 71
3
 72
9
 73
5
 74
0
 42
0.0000001
 43
0.0000001
 44
0.0000000001
 40
0.0
 40
0.0
 40
0.0
 40
0.0
 40
0.2433973571
 40
1.0
 40
1.0
 40
1.0
 40
1.0
 10
306.3205000651
 20
80.2915369402
 30
0.0
 10
306.3151722706
 20
80.260112781
 30
0.0
 10
306.287203369
 20
80.1320570386
 30
0.0
 10
306.2350347976
 20
80.0097333769
 30
0.0
 10
306.1858253319
 20
79.9237419015
 30
0.0
  0
LINE
  5
487
100
AcDbEntity
  8
0
100
AcDbLine
 62
7
  6
BYLAYER
 10
271.1792124548
 20
78.764147184
 11
270.9830589501
 21
78.8942038713
  0
LINE
  5
488
100
AcDbEntity
  8
0
100
AcDbLine
 62
7
  6
BYLAYER
 10
270.9034843152
 20
78.9468245918
 11
270.7181989502
 21
79.0690374712
  0
SPLINE
  5
489
100
AcDbEntity
  8
0
100
AcDbSpline
 62
7
  6
BYLAYER
 70
0
 71
3
 72
9
 73
5
 74
0
 42
0.0000001
 43
0.0000001
 44
0.0000000001
 40
0.0
 40
0.0
 40
0.0
 40
0.0
 40
0.2802757735
 40
1.0
 40
1.0
 40
1.0
 40
1.0
 10
270.1845052415
 20
79.4186417031
 30
0.0
 10
270.1732666252
 20
79.4259662531
 30
0.0
 10
270.1348321114
 20
79.4542013596
 30
0.0
 10
270.1029833148
 20
79.4939012499
 30
0.0
 10
270.0916990996
 20
79.5264485468
 30
0.0
  0
SPLINE
  5
48A
100
AcDbEntity
  8
0
100
AcDbSpline
 62
7
  6
BYLAYER
 70
0
 71
3
 72
8
 73
4
 74
0
 42
0.0000001
 43
0.0000001
 44
0.0000000001
 40
0.0
 40
0.0
 40
0.0
 40
0.0
 40
1.0
 40
1.0
 40
1.0
 40
1.0
 10
270.0916990996
 20
79.5264485468
 30
0.0
 10
270.0866774653
 20
79.5409325512
 30
0.0
 10
270.0839196789
 20
79.5564452383
 30
0.0
 10
270.083918568
 20
79.5717750523
 30
0.0
  0
SPLINE
  5
48B
100
AcDbEntity
  8
0
100
AcDbSpline
 62
7
  6
BYLAYER
 70
0
 71
3
 72
9
 73
5
 74
0
 42
0.0000001
 43
0.0000001
 44
0.0000000001
 40
0.0
 40
0.0
 40
0.0
 40
0.0
 40
0.468676756
 40
1.0
 40
1.0
 40
1.0
 40
1.0
 10
270.0268302862
 20
79.8960739162
 30
0.0
 10
269.9723960388
 20
79.9341604298
 30
0.0
 10
269.8358233323
 20
79.9854164732
 30
0.0
 10
269.6925401268
 20
79.9940812797
 30
0.0
 10
269.6174683191
 20
79.988025439
 30
0.0
  0
SPLINE
  5
48C
100
AcDbEntity
  8
0
100
AcDbSpline
 62
7
  6
BYLAYER
 70
0
 71
3
 72
9
 73
5
 74
0
 42
0.0000001
 43
0.0000001
 44
0.0000000001
 40
0.0
 40
0.0
 40
0.0
 40
0.0
 40
0.2532145011
 40
1.0
 40
1.0
 40
1.0
 40
1.0
 10
269.6174683191
 20
79.988025439
 30
0.0
 10
269.599662031
 20
79.9865890536
 30
0.0
 10
269.5291597604
 20
79.9836972406
 30
0.0
 10
269.458099412
 20
79.9914544902
 30
0.0
 10
269.4069048397
 20
80.0038984681
 30
0.0
  0
SPLINE
  5
48D
100
AcDbEntity
  8
0
100
AcDbSpline
 62
7
  6
BYLAYER
 70
0
 71
3
 72
9
 73
5
 74
0
 42
0.0000001
 43
0.0000001
 44
0.0000000001
 40
0.0
 40
0.0
 40
0.0
 40
0.0
 40
0.2714876873
 40
1.0
 40
1.0
 40
1.0
 40
1.0
 10
269.4069048397
 20
80.0038984681
 30
0.0
 10
269.3907273473
 20
80.007830767
 30
0.0
 10
269.331878441
 20
80.0248063259
 30
0.0
 10
269.2752496007
 20
80.0522016558
 30
0.0
 10
269.24008493
 20
80.0797568538
 30
0.0
  0
SPLINE
  5
48E
100
AcDbEntity
  8
0
100
AcDbSpline
 62
7
  6
BYLAYER
 70
0
 71
3
 72
9
 73
5
 74
0
 42
0.0000001
 43
0.0000001
 44
0.0000000001
 40
0.0
 40
0.0
 40
0.0
 40
0.0
 40
0.2551707188
 40
1.0
 40
1.0
 40
1.0
 40
1.0
 10
269.24008493
 20
80.0797568538
 30
0.0
 10
269.1789505748
 20
80.1276620163
 30
0.0
 10
268.9416472562
 20
80.3182797287
 30
0.0
 10
268.7136909955
 20
80.5206123362
 30
0.0
 10
268.5505147852
 20
80.6779981202
 30
0.0
  0
SPLINE
  5
48F
100
AcDbEntity
  8
0
100
AcDbSpline
 62
7
  6
BYLAYER
 70
0
 71
3
 72
9
 73
5
 74
0
 42
0.0000001
 43
0.0000001
 44
0.0000000001
 40
0.0
 40
0.0
 40
0.0
 40
0.0
 40
0.2552371616
 40
1.0
 40
1.0
 40
1.0
 40
1.0
 10
268.5505147852
 20
80.6779981202
 30
0.0
 10
268.4975900833
 20
80.7290447508
 30
0.0
 10
268.2929398792
 20
80.9318164869
 30
0.0
 10
268.0993961977
 20
81.1458799516
 30
0.0
 10
267.9630115137
 20
81.3115123934
 30
0.0
  0
SPLINE
  5
490
100
AcDbEntity
  8
0
100
AcDbSpline
 62
7
  6
BYLAYER
 70
0
 71
3
 72
9
 73
5
 74
0
 42
0.0000001
 43
0.0000001
 44
0.0000000001
 40
0.0
 40
0.0
 40
0.0
 40
0.0
 40
0.2640754394
 40
1.0
 40
1.0
 40
1.0
 40
1.0
 10
267.9630115137
 20
81.3115123934
 30
0.0
 10
267.9330046535
 20
81.3502139622
 30
0.0
 10
267.8262993325
 20
81.5018231149
 30
0.0
 10
267.7505467352
 20
81.6765923143
 30
0.0
 10
267.721709722
 20
81.8099849402
 30
0.0
  0
SPLINE
  5
491
100
AcDbEntity
  8
0
100
AcDbSpline
 62
7
  6
BYLAYER
 70
0
 71
3
 72
9
 73
5
 74
0
 42
0.0000001
 43
0.0000001
 44
0.0000000001
 40
0.0
 40
0.0
 40
0.0
 40
0.0
 40
0.2474990407
 40
1.0
 40
1.0
 40
1.0
 40
1.0
 10
298.3348729732
 20
73.2005677688
 30
0.0
 10
298.3319603153
 20
73.1282542978
 30
0.0
 10
298.3096858631
 20
72.8365600831
 30
0.0
 10
298.2448230315
 20
72.5484037153
 30
0.0
 10
298.1752561477
 20
72.339648491
 30
0.0
  0
SPLINE
  5
492
100
AcDbEntity
  8
0
100
AcDbSpline
 62
7
  6
BYLAYER
 70
0
 71
3
 72
11
 73
7
 74
0
 42
0.0000001
 43
0.0000001
 44
0.0000000001
 40
0.0
 40
0.0
 40
0.0
 40
0.0
 40
0.2207680759
 40
0.4589080927
 40
0.7182254242
 40
1.0
 40
1.0
 40
1.0
 40
1.0
 10
298.1752561477
 20
72.339648491
 30
0.0
 10
298.0884444176
 20
72.0791452001
 30
0.0
 10
297.8397161484
 20
71.5588836909
 30
0.0
 10
297.2901675322
 20
70.8479491661
 30
0.0
 10
296.567957195
 20
70.195254718
 30
0.0
 10
296.0048035796
 20
69.8222783879
 30
0.0
 10
295.7012904946
 20
69.6470460726
 30
0.0
  0
SPLINE
  5
493
100
AcDbEntity
  8
0
100
AcDbSpline
 62
7
  6
BYLAYER
 70
0
 71
3
 72
9
 73
5
 74
0
 42
0.0000001
 43
0.0000001
 44
0.0000000001
 40
0.0
 40
0.0
 40
0.0
 40
0.0
 40
0.2735268338
 40
1.0
 40
1.0
 40
1.0
 40
1.0
 10
285.6208271544
 20
80.4390472202
 30
0.0
 10
285.6359123525
 20
80.4334416704
 30
0.0
 10
285.6900482171
 20
80.4106247204
 30
0.0
 10
285.740834639
 20
80.3777036578
 30
0.0
 10
285.7705223997
 20
80.3469540908
 30
0.0
  0
SPLINE
  5
494
100
AcDbEntity
  8
0
100
AcDbSpline
 62
7
  6
BYLAYER
 70
0
 71
3
 72
9
 73
5
 74
0
 42
0.0000001
 43
0.0000001
 44
0.0000000001
 40
0.0
 40
0.0
 40
0.0
 40
0.0
 40
0.5018014624
 40
1.0
 40
1.0
 40
1.0
 40
1.0
 10
285.1632730612
 20
80.4492952426
 30
0.0
 10
285.2350410165
 20
80.4716271316
 30
0.0
 10
285.3861592028
 20
80.4909108158
 30
0.0
 10
285.5368968589
 20
80.4680642289
 30
0.0
 10
285.6074713349
 20
80.4438204098
 30
0.0
  0
SPLINE
  5
495
100
AcDbEntity
  8
0
100
AcDbSpline
 62
7
  6
BYLAYER
 70
0
 71
3
 72
8
 73
4
 74
0
 42
0.0000001
 43
0.0000001
 44
0.0000000001
 40
0.0
 40
0.0
 40
0.0
 40
0.0
 40
1.0
 40
1.0
 40
1.0
 40
1.0
 10
284.7459268357
 20
80.4621616721
 30
0.0
 10
284.7658441055
 20
80.4542432813
 30
0.0
 10
284.7863168663
 20
80.4476358006
 30
0.0
 10
284.8070459099
 20
80.4421855437
 30
0.0
  0
SPLINE
  5
496
100
AcDbEntity
  8
0
100
AcDbSpline
 62
7
  6
BYLAYER
 70
0
 71
3
 72
8
 73
4
 74
0
 42
0.0000001
 43
0.0000001
 44
0.0000000001
 40
0.0
 40
0.0
 40
0.0
 40
0.0
 40
1.0
 40
1.0
 40
1.0
 40
1.0
 10
270.1537747776
 20
88.4229155521
 30
0.0
 10
270.1635147711
 20
88.4146963873
 30
0.0
 10
270.1738281526
 20
88.407126877
 30
0.0
 10
270.1845052416
 20
88.4001682915
 30
0.0
  0
SPLINE
  5
497
100
AcDbEntity
  8
0
100
AcDbSpline
 62
7
  6
BYLAYER
 70
0
 71
3
 72
9
 73
5
 74
0
 42
0.0000001
 43
0.0000001
 44
0.0000000001
 40
0.0
 40
0.0
 40
0.0
 40
0.0
 40
0.5303036897
 40
1.0
 40
1.0
 40
1.0
 40
1.0
 10
269.6174683192
 20
88.9695520274
 30
0.0
 10
269.6915542715
 20
88.9755283419
 30
0.0
 10
269.8332203859
 20
88.9672016342
 30
0.0
 10
269.9683728726
 20
88.9173811519
 30
0.0
 10
270.0228153432
 20
88.8803694657
 30
0.0
  0
SPLINE
  5
498
100
AcDbEntity
  8
0
100
AcDbSpline
 62
7
  6
BYLAYER
 70
0
 71
3
 72
8
 73
4
 74
0
 42
0.0000001
 43
0.0000001
 44
0.0000000001
 40
0.0
 40
0.0
 40
0.0
 40
0.0
 40
1.0
 40
1.0
 40
1.0
 40
1.0
 10
269.24008493
 20
89.0612834422
 30
0.0
 10
269.2489088785
 20
89.0543689555
 30
0.0
 10
269.2581353272
 20
89.0479483061
 30
0.0
 10
269.2676283027
 20
89.0419854536
 30
0.0
  0
SPLINE
  5
499
100
AcDbEntity
  8
0
100
AcDbSpline
 62
7
  6
BYLAYER
 70
0
 71
3
 72
9
 73
5
 74
0
 42
0.0000001
 43
0.0000001
 44
0.0000000001
 40
0.0
 40
0.0
 40
0.0
 40
0.0
 40
0.2393997778
 40
1.0
 40
1.0
 40
1.0
 40
1.0
 10
269.2676283027
 20
89.0419854536
 30
0.0
 10
269.273356675
 20
89.0383872732
 30
0.0
 10
269.2977134801
 20
89.0240428141
 30
0.0
 10
269.3235974587
 20
89.0123609185
 30
0.0
 10
269.3437133004
 20
89.004793342
 30
0.0
  0
SPLINE
  5
49A
100
AcDbEntity
  8
0
100
AcDbSpline
 62
7
  6
BYLAYER
 70
0
 71
3
 72
9
 73
5
 74
0
 42
0.0000001
 43
0.0000001
 44
0.0000000001
 40
0.0
 40
0.0
 40
0.0
 40
0.0
 40
0.2449312445
 40
1.0
 40
1.0
 40
1.0
 40
1.0
 10
268.5505147852
 20
89.6595247087
 30
0.0
 10
268.604174359
 20
89.6077692838
 30
0.0
 10
268.8261316093
 20
89.3994580413
 30
0.0
 10
269.0591826972
 20
89.2030392655
 30
0.0
 10
269.24008493
 20
89.0612834422
 30
0.0
  0
SPLINE
  5
49B
100
AcDbEntity
  8
0
100
AcDbSpline
 62
7
  6
BYLAYER
 70
0
 71
3
 72
9
 73
5
 74
0
 42
0.0000001
 43
0.0000001
 44
0.0000000001
 40
0.0
 40
0.0
 40
0.0
 40
0.0
 40
0.2453022353
 40
1.0
 40
1.0
 40
1.0
 40
1.0
 10
267.9630115137
 20
90.2930389818
 30
0.0
 10
268.0044878249
 20
90.2426680567
 30
0.0
 10
268.1764561298
 20
90.0397121785
 30
0.0
 10
268.3596153407
 20
89.846295453
 30
0.0
 10
268.5029660059
 20
89.7057605856
 30
0.0
  0
SPLINE
  5
49C
100
AcDbEntity
  8
0
100
AcDbSpline
 62
7
  6
BYLAYER
 70
0
 71
3
 72
9
 73
5
 74
0
 42
0.0000001
 43
0.0000001
 44
0.0000000001
 40
0.0
 40
0.0
 40
0.0
 40
0.0
 40
0.2432238808
 40
1.0
 40
1.0
 40
1.0
 40
1.0
 10
267.721709722
 20
90.7915115287
 30
0.0
 10
267.7282037784
 20
90.7614716897
 30
0.0
 10
267.7602669859
 20
90.6391427348
 30
0.0
 10
267.8134704366
 20
90.5227081442
 30
0.0
 10
267.8623029066
 20
90.4404903432
 30
0.0
  0
SPLINE
  5
49D
100
AcDbEntity
  8
0
100
AcDbSpline
 62
7
  6
BYLAYER
 70
0
 71
3
 72
9
 73
5
 74
0
 42
0.0000001
 43
0.0000001
 44
0.0000000001
 40
0.0
 40
0.0
 40
0.0
 40
0.0
 40
0.2455919294
 40
1.0
 40
1.0
 40
1.0
 40
1.0
 10
267.8623029066
 20
90.4404903432
 30
0.0
 10
267.869770299
 20
90.4279177132
 30
0.0
 10
267.9010088054
 20
90.3772220032
 30
0.0
 10
267.9354879073
 20
90.3285377558
 30
0.0
 10
267.9630115137
 20
90.2930389818
 30
0.0
  0
SPLINE
  5
49E
100
AcDbEntity
  8
0
100
AcDbSpline
 62
7
  6
BYLAYER
 70
0
 71
3
 72
9
 73
5
 74
0
 42
0.0000001
 43
0.0000001
 44
0.0000000001
 40
0.0
 40
0.0
 40
0.0
 40
0.0
 40
0.261772037
 40
1.0
 40
1.0
 40
1.0
 40
1.0
 10
304.8301278851
 20
87.9559848593
 30
0.0
 10
304.8662199018
 20
87.9595146407
 30
0.0
 10
305.0034819706
 20
87.9779791566
 30
0.0
 10
305.1387198846
 20
88.0161080103
 30
0.0
 10
305.2320251551
 20
88.0579785905
 30
0.0
  0
SPLINE
  5
49F
100
AcDbEntity
  8
0
100
AcDbSpline
 62
7
  6
BYLAYER
 70
0
 71
3
 72
9
 73
5
 74
0
 42
0.0000001
 43
0.0000001
 44
0.0000000001
 40
0.0
 40
0.0
 40
0.0
 40
0.0
 40
0.2610522135
 40
1.0
 40
1.0
 40
1.0
 40
1.0
 10
305.2320251551
 20
88.0579785905
 30
0.0
 10
305.245696547
 20
88.0641136041
 30
0.0
 10
305.2975252906
 20
88.0887783816
 30
0.0
 10
305.3471800777
 20
88.1181986948
 30
0.0
 10
305.3816215591
 20
88.1429569949
 30
0.0
  0
SPLINE
  5
4A0
100
AcDbEntity
  8
0
100
AcDbSpline
 62
7
  6
BYLAYER
 70
0
 71
3
 72
15
 73
11
 74
0
 42
0.0000001
 43
0.0000001
 44
0.0000000001
 40
0.0
 40
0.0
 40
0.0
 40
0.0
 40
0.114157724
 40
0.2373244526
 40
0.3669752053
 40
0.4999994786
 40
0.6330238245
 40
0.762674789
 40
0.8858418513
 40
1.0
 40
1.0
 40
1.0
 40
1.0
 10
295.7012904946
 20
69.6470460726
 30
0.0
 10
295.2656155229
 20
69.3955105118
 30
0.0
 10
294.3129695055
 20
68.9518892233
 30
0.0
 10
292.7616183126
 20
68.4804012576
 30
0.0
 10
291.0820635092
 20
68.1901426185
 30
0.0
 10
289.3373401966
 20
68.0922154361
 30
0.0
 10
287.5926154895
 20
68.1901343378
 30
0.0
 10
285.9130565651
 20
68.4803850018
 30
0.0
 10
284.361698694
 20
68.9518655932
 30
0.0
 10
283.4090468399
 20
69.3954821236
 30
0.0
 10
282.9733684334
 20
69.6470154784
 30
0.0
  0
SPLINE
  5
4A1
100
AcDbEntity
  8
0
100
AcDbSpline
 62
7
  6
BYLAYER
 70
0
 71
3
 72
9
 73
5
 74
0
 42
0.0000001
 43
0.0000001
 44
0.0000000001
 40
0.0
 40
0.0
 40
0.0
 40
0.0
 40
0.261203105
 40
1.0
 40
1.0
 40
1.0
 40
1.0
 10
282.9733684334
 20
69.6470154784
 30
0.0
 10
282.8590963483
 20
69.7129890049
 30
0.0
 10
282.427672361
 20
69.9757170556
 30
0.0
 10
282.0209988653
 20
70.2805947574
 30
0.0
 10
281.7445822676
 20
70.5313534082
 30
0.0
  0
SPLINE
  5
4A2
100
AcDbEntity
  8
0
100
AcDbSpline
 62
7
  6
BYLAYER
 70
0
 71
3
 72
9
 73
5
 74
0
 42
0.0000001
 43
0.0000001
 44
0.0000000001
 40
0.0
 40
0.0
 40
0.0
 40
0.0
 40
0.2755756012
 40
1.0
 40
1.0
 40
1.0
 40
1.0
 10
291.2428114964
 20
79.9799599256
 30
0.0
 10
291.270319194
 20
79.9927151758
 30
0.0
 10
291.3677201495
 20
80.0434337934
 30
0.0
 10
291.456818798
 20
80.1143484905
 30
0.0
 10
291.5047302916
 20
80.1780487491
 30
0.0
  0
SPLINE
  5
4A3
100
AcDbEntity
  8
0
100
AcDbSpline
 62
7
  6
BYLAYER
 70
0
 71
3
 72
9
 73
5
 74
0
 42
0.0000001
 43
0.0000001
 44
0.0000000001
 40
0.0
 40
0.0
 40
0.0
 40
0.0
 40
0.2613546753
 40
1.0
 40
1.0
 40
1.0
 40
1.0
 10
291.5047302916
 20
80.1780487491
 30
0.0
 10
291.5115732909
 20
80.187146792
 30
0.0
 10
291.5364306505
 20
80.2229119348
 30
0.0
 10
291.5556479018
 20
80.2627731053
 30
0.0
 10
291.5651888233
 20
80.2935002946
 30
0.0
  0
SPLINE
  5
4A4
100
AcDbEntity
  8
0
100
AcDbSpline
 62
7
  6
BYLAYER
 70
0
 71
3
 72
9
 73
5
 74
0
 42
0.0000001
 43
0.0000001
 44
0.0000000001
 40
0.0
 40
0.0
 40
0.0
 40
0.0
 40
0.2617578761
 40
1.0
 40
1.0
 40
1.0
 40
1.0
 10
270.1054809444
 20
725.9113918286
 30
0.0
 10
270.1019935065
 20
725.9055104786
 30
0.0
 10
270.0899533654
 20
725.8823248191
 30
0.0
 10
270.0839171705
 20
725.8558779437
 30
0.0
 10
270.083918568
 20
725.8365937499
 30
0.0
  0
SPLINE
  5
4A5
100
AcDbEntity
  8
0
100
AcDbSpline
 62
7
  6
BYLAYER
 70
0
 71
3
 72
9
 73
5
 74
0
 42
0.0000001
 43
0.0000001
 44
0.0000000001
 40
0.0
 40
0.0
 40
0.0
 40
0.0
 40
0.2528153945
 40
1.0
 40
1.0
 40
1.0
 40
1.0
 10
267.7433937503
 20
728.5922265301
 30
0.0
 10
267.7371222959
 20
728.5690370219
 30
0.0
 10
267.7152284007
 20
728.4765523844
 30
0.0
 10
267.7054821735
 20
728.3811654021
 30
0.0
 10
267.7054828868
 20
728.3101677349
 30
0.0
  0
SPLINE
  5
4A6
100
AcDbEntity
  8
0
100
AcDbSpline
 62
7
  6
BYLAYER
 70
0
 71
3
 72
8
 73
4
 74
0
 42
0.0000001
 43
0.0000001
 44
0.0000000001
 40
0.0
 40
0.0
 40
0.0
 40
0.0
 40
1.0
 40
1.0
 40
1.0
 40
1.0
 10
267.8116435862
 20
728.7478473327
 30
0.0
 10
267.7964789313
 20
728.7231824716
 30
0.0
 10
267.7828692034
 20
728.6974705815
 30
0.0
 10
267.7712402801
 20
728.670954732
 30
0.0
  0
SPLINE
  5
4A7
100
AcDbEntity
  8
0
100
AcDbSpline
 62
7
  6
BYLAYER
 70
0
 71
3
 72
9
 73
5
 74
0
 42
0.0000001
 43
0.0000001
 44
0.0000000001
 40
0.0
 40
0.0
 40
0.0
 40
0.0
 40
0.263116697
 40
1.0
 40
1.0
 40
1.0
 40
1.0
 10
268.1980199236
 20
729.1991253666
 30
0.0
 10
268.1589607791
 20
729.16448565
 30
0.0
 10
268.0147325378
 20
729.028272285
 30
0.0
 10
267.8882213351
 20
728.8723987686
 30
0.0
 10
267.8116435862
 20
728.7478473327
 30
0.0
  0
SPLINE
  5
4A8
100
AcDbEntity
  8
0
100
AcDbSpline
 62
7
  6
BYLAYER
 70
0
 71
3
 72
9
 73
5
 74
0
 42
0.0000001
 43
0.0000001
 44
0.0000000001
 40
0.0
 40
0.0
 40
0.0
 40
0.0
 40
0.2588666781
 40
1.0
 40
1.0
 40
1.0
 40
1.0
 10
268.58305916
 20
729.4845080045
 30
0.0
 10
268.5479534709
 20
729.4625976104
 30
0.0
 10
268.4139622297
 20
729.3754152481
 30
0.0
 10
268.2866599312
 20
729.2777360166
 30
0.0
 10
268.1980199236
 20
729.1991253666
 30
0.0
  0
SPLINE
  5
4A9
100
AcDbEntity
  8
0
100
AcDbSpline
 62
7
  6
BYLAYER
 70
0
 71
3
 72
11
 73
7
 74
0
 42
0.0000001
 43
0.0000001
 44
0.0000000001
 40
0.0
 40
0.0
 40
0.0
 40
0.0
 40
0.2186698235
 40
0.4522998897
 40
0.7112411981
 40
1.0
 40
1.0
 40
1.0
 40
1.0
 10
301.90871065
 20
733.3633555989
 30
0.0
 10
301.9087104354
 20
733.3931234534
 30
0.0
 10
301.8979668161
 20
733.4550879526
 30
0.0
 10
301.8520311461
 20
733.5417742857
 30
0.0
 10
301.7791225416
 20
733.6204979965
 30
0.0
 10
301.7179669923
 20
733.6639875212
 30
0.0
 10
301.6842326769
 20
733.6841668937
 30
0.0
  0
SPLINE
  5
4AA
100
AcDbEntity
  8
0
100
AcDbSpline
 62
7
  6
BYLAYER
 70
0
 71
3
 72
11
 73
7
 74
0
 42
0.0000001
 43
0.0000001
 44
0.0000000001
 40
0.0
 40
0.0
 40
0.0
 40
0.0
 40
0.2898001512
 40
0.5490497799
 40
0.7822288614
 40
1.0
 40
1.0
 40
1.0
 40
1.0
 10
299.7671257827
 20
729.2820162687
 30
0.0
 10
299.6244691482
 20
729.3643772518
 30
0.0
 10
299.3656995731
 20
729.5425005864
 30
0.0
 10
299.0565865389
 20
729.8675668093
 30
0.0
 10
298.8609076294
 20
730.2269637485
 30
0.0
 10
298.8152141463
 20
730.4850190718
 30
0.0
 10
298.8152132537
 20
730.6088019568
 30
0.0
  0
SPLINE
  5
4AB
100
AcDbEntity
  8
0
100
AcDbSpline
 62
7
  6
BYLAYER
 70
0
 71
3
 72
11
 73
7
 74
0
 42
0.0000001
 43
0.0000001
 44
0.0000000001
 40
0.0
 40
0.0
 40
0.0
 40
0.0
 40
0.2177159471
 40
0.4509403815
 40
0.7102937689
 40
1.0
 40
1.0
 40
1.0
 40
1.0
 10
302.9713055132
 20
727.2408105711
 30
0.0
 10
302.9713052935
 20
727.2712719406
 30
0.0
 10
302.9600242898
 20
727.3347802374
 30
0.0
 10
302.9119125556
 20
727.4232896081
 30
0.0
 10
302.8357663269
 20
727.503267678
 30
0.0
 10
302.7720920577
 20
727.5471374292
 30
0.0
 10
302.7369885829
 20
727.5674039713
 30
0.0
  0
SPLINE
  5
4AC
100
AcDbEntity
  8
0
100
AcDbSpline
 62
7
  6
BYLAYER
 70
0
 71
3
 72
10
 73
6
 74
0
 42
0.0000001
 43
0.0000001
 44
0.0000000001
 40
0.0
 40
0.0
 40
0.0
 40
0.0
 40
0.5467503854
 40
0.781575096
 40
1.0
 40
1.0
 40
1.0
 40
1.0
 10
271.2168680644
 20
728.1077714529
 30
0.0
 10
271.1533745269
 20
728.0711136608
 30
0.0
 10
271.0676613112
 20
728.0040591384
 30
0.0
 10
270.9993344234
 20
727.8870054835
 30
0.0
 10
270.9852986352
 20
727.8266144152
 30
0.0
 10
270.9835278412
 20
727.7973785383
 30
0.0
  0
SPLINE
  5
4AD
100
AcDbEntity
  8
0
100
AcDbSpline
 62
7
  6
BYLAYER
 70
0
 71
3
 72
11
 73
7
 74
0
 42
0.0000001
 43
0.0000001
 44
0.0000000001
 40
0.0
 40
0.0
 40
0.0
 40
0.0
 40
0.2176656375
 40
0.4508002441
 40
0.7100903698
 40
1.0
 40
1.0
 40
1.0
 40
1.0
 10
274.2050970713
 20
730.6087428013
 30
0.0
 10
274.2050979644
 20
730.4848904452
 30
0.0
 10
274.1592536971
 20
730.2266443749
 30
0.0
 10
273.9629814093
 20
729.8671333129
 30
0.0
 10
273.6530187515
 20
729.5421346103
 30
0.0
 10
273.3936173529
 20
729.3641947538
 30
0.0
 10
273.2506214889
 20
729.2819525311
 30
0.0
  0
SPLINE
  5
4AE
100
AcDbEntity
  8
0
100
AcDbSpline
 62
7
  6
BYLAYER
 70
0
 71
3
 72
11
 73
7
 74
0
 42
0.0000001
 43
0.0000001
 44
0.0000000001
 40
0.0
 40
0.0
 40
0.0
 40
0.0
 40
0.2897060281
 40
0.5490591642
 40
0.7822835676
 40
1.0
 40
1.0
 40
1.0
 40
1.0
 10
271.4828233296
 20
733.6093182962
 30
0.0
 10
271.4477201599
 20
733.5890515927
 30
0.0
 10
271.3840465233
 20
733.5451815412
 30
0.0
 10
271.3079014074
 20
733.4652030624
 30
0.0
 10
271.2597909345
 20
733.3766933825
 30
0.0
 10
271.24851089
 20
733.3131850904
 30
0.0
 10
271.2485111097
 20
733.2827237696
 30
0.0
  0
SPLINE
  5
4AF
100
AcDbEntity
  8
0
100
AcDbSpline
 62
7
  6
BYLAYER
 70
0
 71
3
 72
9
 73
5
 74
0
 42
0.0000001
 43
0.0000001
 44
0.0000000001
 40
0.0
 40
0.0
 40
0.0
 40
0.0
 40
0.2671444907
 40
1.0
 40
1.0
 40
1.0
 40
1.0
 10
273.9223322577
 20
734.9221034699
 30
0.0
 10
273.8962859408
 20
734.9221034073
 30
0.0
 10
273.7990945494
 20
734.916578981
 30
0.0
 10
273.7013699521
 20
734.8901891401
 30
0.0
 10
273.6394900335
 20
734.8544629657
 30
0.0
  0
SPLINE
  5
4B0
100
AcDbEntity
  8
0
100
AcDbSpline
 62
7
  6
BYLAYER
 70
0
 71
3
 72
9
 73
5
 74
0
 42
0.0000001
 43
0.0000001
 44
0.0000000001
 40
0.0
 40
0.0
 40
0.0
 40
0.0
 40
0.2291146192
 40
1.0
 40
1.0
 40
1.0
 40
1.0
 10
274.2051754579
 20
734.8544643252
 30
0.0
 10
274.1858173766
 20
734.8656404659
 30
0.0
 10
274.0970374964
 20
734.9068809414
 30
0.0
 10
273.9975406371
 20
734.9221036506
 30
0.0
 10
273.9223322577
 20
734.9221034699
 30
0.0
  0
SPLINE
  5
4B1
100
AcDbEntity
  8
0
100
AcDbSpline
 62
7
  6
BYLAYER
 70
0
 71
3
 72
9
 73
5
 74
0
 42
0.0000001
 43
0.0000001
 44
0.0000000001
 40
0.0
 40
0.0
 40
0.0
 40
0.0
 40
0.4492434353
 40
1.0
 40
1.0
 40
1.0
 40
1.0
 10
275.1001546207
 20
734.2421027952
 30
0.0
 10
275.100154396
 20
734.2732606886
 30
0.0
 10
275.0729189441
 20
734.3427865716
 30
0.0
 10
275.0160771928
 20
734.3863005816
 30
0.0
 10
274.9829961556
 20
734.4053994953
 30
0.0
  0
SPLINE
  5
4B2
100
AcDbEntity
  8
0
100
AcDbSpline
 62
7
  6
BYLAYER
 70
0
 71
3
 72
9
 73
5
 74
0
 42
0.0000001
 43
0.0000001
 44
0.0000000001
 40
0.0
 40
0.0
 40
0.0
 40
0.0
 40
0.5507565647
 40
1.0
 40
1.0
 40
1.0
 40
1.0
 10
274.1344762613
 20
733.2623185839
 30
0.0
 10
274.1013952241
 20
733.2814174976
 30
0.0
 10
274.0445534727
 20
733.3249315076
 30
0.0
 10
274.0173180209
 20
733.3944573906
 30
0.0
 10
274.0173177962
 20
733.425615284
 30
0.0
  0
SPLINE
  5
4B3
100
AcDbEntity
  8
0
100
AcDbSpline
 62
7
  6
BYLAYER
 70
0
 71
3
 72
9
 73
5
 74
0
 42
0.0000001
 43
0.0000001
 44
0.0000000001
 40
0.0
 40
0.0
 40
0.0
 40
0.0
 40
0.2671440672
 40
1.0
 40
1.0
 40
1.0
 40
1.0
 10
275.4072730767
 20
732.6231423829
 30
0.0
 10
275.3812267456
 20
732.6231423203
 30
0.0
 10
275.2840351139
 20
732.6286662938
 30
0.0
 10
275.1863102205
 20
732.6550557025
 30
0.0
 10
275.1244298765
 20
732.6907815276
 30
0.0
  0
SPLINE
  5
4B4
100
AcDbEntity
  8
0
100
AcDbSpline
 62
7
  6
BYLAYER
 70
0
 71
3
 72
9
 73
5
 74
0
 42
0.0000001
 43
0.0000001
 44
0.0000000001
 40
0.0
 40
0.0
 40
0.0
 40
0.0
 40
0.2291142508
 40
1.0
 40
1.0
 40
1.0
 40
1.0
 10
275.6901153014
 20
732.6907828873
 30
0.0
 10
275.6707573727
 20
732.6796066486
 30
0.0
 10
275.5819779383
 20
732.638365686
 30
0.0
 10
275.4824813333
 20
732.6231425637
 30
0.0
 10
275.4072730767
 20
732.6231423829
 30
0.0
  0
SPLINE
  5
4B5
100
AcDbEntity
  8
0
100
AcDbSpline
 62
7
  6
BYLAYER
 70
0
 71
3
 72
9
 73
5
 74
0
 42
0.0000001
 43
0.0000001
 44
0.0000000001
 40
0.0
 40
0.0
 40
0.0
 40
0.0
 40
0.4492438796
 40
1.0
 40
1.0
 40
1.0
 40
1.0
 10
283.0197305509
 20
737.0181705201
 30
0.0
 10
283.0197307756
 20
736.9870127189
 30
0.0
 10
282.9924964073
 20
736.9174866647
 30
0.0
 10
282.9356551831
 20
736.8739723182
 30
0.0
 10
282.902574441
 20
736.8548732568
 30
0.0
  0
SPLINE
  5
4B6
100
AcDbEntity
  8
0
100
AcDbSpline
 62
7
  6
BYLAYER
 70
0
 71
3
 72
9
 73
5
 74
0
 42
0.0000001
 43
0.0000001
 44
0.0000000001
 40
0.0
 40
0.0
 40
0.0
 40
0.0
 40
0.5507561204
 40
1.0
 40
1.0
 40
1.0
 40
1.0
 10
279.1548999632
 20
738.0387673657
 30
0.0
 10
279.1218192211
 20
738.0196683043
 30
0.0
 10
279.064977997
 20
737.9761539578
 30
0.0
 10
279.0377436286
 20
737.9066279035
 30
0.0
 10
279.0377438533
 20
737.8754701024
 30
0.0
  0
SPLINE
  5
4B7
100
AcDbEntity
  8
0
100
AcDbSpline
 62
7
  6
BYLAYER
 70
0
 71
3
 72
9
 73
5
 74
0
 42
0.0000001
 43
0.0000001
 44
0.0000000001
 40
0.0
 40
0.0
 40
0.0
 40
0.0
 40
0.5255663101
 40
1.0
 40
1.0
 40
1.0
 40
1.0
 10
281.8772511161
 20
739.4191930437
 30
0.0
 10
281.7745308951
 20
739.4191927968
 30
0.0
 10
281.5785583583
 20
739.3979482918
 30
0.0
 10
281.3918703061
 20
739.330275086
 30
0.0
 10
281.3115666667
 20
739.283912035
 30
0.0
  0
SPLINE
  5
4B8
100
AcDbEntity
  8
0
100
AcDbSpline
 62
7
  6
BYLAYER
 70
0
 71
3
 72
9
 73
5
 74
0
 42
0.0000001
 43
0.0000001
 44
0.0000000001
 40
0.0
 40
0.0
 40
0.0
 40
0.0
 40
0.4744342232
 40
1.0
 40
1.0
 40
1.0
 40
1.0
 10
282.4429375166
 20
739.2839147545
 30
0.0
 10
282.3626332837
 20
739.3302773761
 30
0.0
 10
282.1759444971
 20
739.3979496541
 30
0.0
 10
281.9799714491
 20
739.4191932906
 30
0.0
 10
281.8772511161
 20
739.4191930437
 30
0.0
  0
SPLINE
  5
4B9
100
AcDbEntity
  8
0
100
AcDbSpline
 62
7
  6
BYLAYER
 70
0
 71
3
 72
9
 73
5
 74
0
 42
0.0000001
 43
0.0000001
 44
0.0000000001
 40
0.0
 40
0.0
 40
0.0
 40
0.0
 40
0.5256864262
 40
1.0
 40
1.0
 40
1.0
 40
1.0
 10
286.5088128423
 20
737.7122540115
 30
0.0
 10
286.0913349579
 20
737.712253008
 30
0.0
 10
285.2950411879
 20
737.79879597
 30
0.0
 10
284.5366144201
 20
738.0744342581
 30
0.0
 10
284.2107118295
 20
738.2633128682
 30
0.0
  0
SPLINE
  5
4BA
100
AcDbEntity
  8
0
100
AcDbSpline
 62
7
  6
BYLAYER
 70
0
 71
3
 72
9
 73
5
 74
0
 42
0.0000001
 43
0.0000001
 44
0.0000000001
 40
0.0
 40
0.0
 40
0.0
 40
0.0
 40
0.4743130393
 40
1.0
 40
1.0
 40
1.0
 40
1.0
 10
288.8069059068
 20
738.2633239158
 30
0.0
 10
288.4810057355
 20
738.0744435624
 30
0.0
 10
287.7225819586
 20
737.7988015043
 30
0.0
 10
286.9262902705
 20
737.712255015
 30
0.0
 10
286.5088128423
 20
737.7122540115
 30
0.0
  0
SPLINE
  5
4BB
100
AcDbEntity
  8
0
100
AcDbSpline
 62
7
  6
BYLAYER
 70
0
 71
3
 72
9
 73
5
 74
0
 42
0.0000001
 43
0.0000001
 44
0.0000000001
 40
0.0
 40
0.0
 40
0.0
 40
0.0
 40
0.5254238561
 40
1.0
 40
1.0
 40
1.0
 40
1.0
 10
291.3782822225
 20
739.5722248173
 30
0.0
 10
291.2805054692
 20
739.5702503162
 30
0.0
 10
291.0943473027
 20
739.5471392056
 30
0.0
 10
290.9171575176
 20
739.4816709788
 30
0.0
 10
290.8406592602
 20
739.437504953
 30
0.0
  0
SPLINE
  5
4BC
100
AcDbEntity
  8
0
100
AcDbSpline
 62
7
  6
BYLAYER
 70
0
 71
3
 72
9
 73
5
 74
0
 42
0.0000001
 43
0.0000001
 44
0.0000000001
 40
0.0
 40
0.0
 40
0.0
 40
0.0
 40
0.4786545066
 40
1.0
 40
1.0
 40
1.0
 40
1.0
 10
291.9307103896
 20
739.459220372
 30
0.0
 10
291.8497887617
 20
739.4999618342
 30
0.0
 10
291.6670504176
 20
739.5582602325
 30
0.0
 10
291.4769415802
 20
739.5742171416
 30
0.0
 10
291.3782822225
 20
739.5722248173
 30
0.0
  0
LINE
  5
4BD
100
AcDbEntity
  8
0
100
AcDbLine
 62
7
  6
BYLAYER
 10
292.0107504031
 20
739.4190873355
 11
291.9307103896
 21
739.459220372
  0
SPLINE
  5
4BE
100
AcDbEntity
  8
0
100
AcDbSpline
 62
7
  6
BYLAYER
 70
0
 71
3
 72
9
 73
5
 74
0
 42
0.0000001
 43
0.0000001
 44
0.0000000001
 40
0.0
 40
0.0
 40
0.0
 40
0.0
 40
0.4682831591
 40
1.0
 40
1.0
 40
1.0
 40
1.0
 10
305.3816215589
 20
722.9767418526
 30
0.0
 10
305.3072112132
 20
722.9232518867
 30
0.0
 10
305.1270985412
 20
722.8385537512
 30
0.0
 10
304.9336885164
 20
722.7998978957
 30
0.0
 10
304.8301278851
 20
722.7897697171
 30
0.0
  0
SPLINE
  5
4BF
100
AcDbEntity
  8
0
100
AcDbSpline
 62
7
  6
BYLAYER
 70
0
 71
3
 72
9
 73
5
 74
0
 42
0.0000001
 43
0.0000001
 44
0.0000000001
 40
0.0
 40
0.0
 40
0.0
 40
0.0
 40
0.469077621
 40
1.0
 40
1.0
 40
1.0
 40
1.0
 10
291.5792801979
 20
717.6684495411
 30
0.0
 10
291.5792951737
 20
717.7175991028
 30
0.0
 10
291.5516613257
 20
717.8232810307
 30
0.0
 10
291.4833597143
 20
717.9061185311
 30
0.0
 10
291.4424989271
 20
717.9438683546
 30
0.0
  0
SPLINE
  5
4C0
100
AcDbEntity
  8
0
100
AcDbSpline
 62
7
  6
BYLAYER
 70
0
 71
3
 72
8
 73
4
 74
0
 42
0.0000001
 43
0.0000001
 44
0.0000000001
 40
0.0
 40
0.0
 40
0.0
 40
0.0
 40
1.0
 40
1.0
 40
1.0
 40
1.0
 10
291.5791496794
 20
715.2101628514
 30
0.0
 10
291.5783750194
 20
715.1838375897
 30
0.0
 10
291.5740712116
 20
715.1574182477
 30
0.0
 10
291.566656772
 20
715.1321468095
 30
0.0
  0
SPLINE
  5
4C1
100
AcDbEntity
  8
0
100
AcDbSpline
 62
7
  6
BYLAYER
 70
0
 71
3
 72
11
 73
7
 74
0
 42
0.0000001
 43
0.0000001
 44
0.0000000001
 40
0.0
 40
0.0
 40
0.0
 40
0.0
 40
0.2068464867
 40
0.4365278822
 40
0.7006409972
 40
1.0
 40
1.0
 40
1.0
 40
1.0
 10
285.827417696
 20
715.0590854826
 30
0.0
 10
285.8266933407
 20
715.0806868052
 30
0.0
 10
285.8147977887
 20
715.1262969598
 30
0.0
 10
285.7703994088
 20
715.1861038959
 30
0.0
 10
285.703859237
 20
715.2368262621
 30
0.0
 10
285.6501483677
 20
715.2619365286
 30
0.0
 10
285.6208271544
 20
715.272832078
 30
0.0
  0
SPLINE
  5
4C2
100
AcDbEntity
  8
0
100
AcDbSpline
 62
7
  6
BYLAYER
 70
0
 71
3
 72
9
 73
5
 74
0
 42
0.0000001
 43
0.0000001
 44
0.0000000001
 40
0.0
 40
0.0
 40
0.0
 40
0.0
 40
0.2594618402
 40
1.0
 40
1.0
 40
1.0
 40
1.0
 10
267.8713494373
 20
725.2767065621
 30
0.0
 10
267.8514201644
 20
725.3108448905
 30
0.0
 10
267.78018766
 20
725.4455325503
 30
0.0
 10
267.7334334568
 20
725.5936479407
 30
0.0
 10
267.7169425753
 20
725.7052593381
 30
0.0
  0
SPLINE
  5
4C3
100
AcDbEntity
  8
0
100
AcDbSpline
 62
7
  6
BYLAYER
 70
0
 71
3
 72
9
 73
5
 74
0
 42
0.0000001
 43
0.0000001
 44
0.0000000001
 40
0.0
 40
0.0
 40
0.0
 40
0.0
 40
0.2552371616
 40
1.0
 40
1.0
 40
1.0
 40
1.0
 10
268.5505147852
 20
724.4933095665
 30
0.0
 10
268.4975900833
 20
724.544356197
 30
0.0
 10
268.2929398792
 20
724.7471279331
 30
0.0
 10
268.0993961977
 20
724.9611913978
 30
0.0
 10
267.9630115137
 20
725.1268238396
 30
0.0
  0
SPLINE
  5
4C4
100
AcDbEntity
  8
0
100
AcDbSpline
 62
7
  6
BYLAYER
 70
0
 71
3
 72
9
 73
5
 74
0
 42
0.0000001
 43
0.0000001
 44
0.0000000001
 40
0.0
 40
0.0
 40
0.0
 40
0.0
 40
0.2551707188
 40
1.0
 40
1.0
 40
1.0
 40
1.0
 10
269.24008493
 20
723.8950683
 30
0.0
 10
269.1789505748
 20
723.9429734625
 30
0.0
 10
268.9416472562
 20
724.1335911749
 30
0.0
 10
268.7136909955
 20
724.3359237824
 30
0.0
 10
268.5505147852
 20
724.4933095665
 30
0.0
  0
SPLINE
  5
4C5
100
AcDbEntity
  8
0
100
AcDbSpline
 62
7
  6
BYLAYER
 70
0
 71
3
 72
9
 73
5
 74
0
 42
0.0000001
 43
0.0000001
 44
0.0000000001
 40
0.0
 40
0.0
 40
0.0
 40
0.0
 40
0.2532145012
 40
1.0
 40
1.0
 40
1.0
 40
1.0
 10
269.6174683183
 20
723.8033368852
 30
0.0
 10
269.5996620303
 20
723.8019004998
 30
0.0
 10
269.5291597599
 20
723.7990086869
 30
0.0
 10
269.4580994118
 20
723.8067659365
 30
0.0
 10
269.4069048397
 20
723.8192099143
 30
0.0
  0
SPLINE
  5
4C6
100
AcDbEntity
  8
0
100
AcDbSpline
 62
7
  6
BYLAYER
 70
0
 71
3
 72
9
 73
5
 74
0
 42
0.0000001
 43
0.0000001
 44
0.0000000001
 40
0.0
 40
0.0
 40
0.0
 40
0.0
 40
0.4686821413
 40
1.0
 40
1.0
 40
1.0
 40
1.0
 10
270.0268302862
 20
723.7113853625
 30
0.0
 10
269.9723956771
 20
723.7494721291
 30
0.0
 10
269.8358194855
 20
723.8007159076
 30
0.0
 10
269.6925390014
 20
723.8093926352
 30
0.0
 10
269.6174683183
 20
723.8033368852
 30
0.0
  0
SPLINE
  5
4C7
100
AcDbEntity
  8
0
100
AcDbSpline
 62
7
  6
BYLAYER
 70
0
 71
3
 72
9
 73
5
 74
0
 42
0.0000001
 43
0.0000001
 44
0.0000000001
 40
0.0
 40
0.0
 40
0.0
 40
0.0
 40
0.2802757735
 40
1.0
 40
1.0
 40
1.0
 40
1.0
 10
270.1845052415
 20
723.2339531493
 30
0.0
 10
270.1732666252
 20
723.2412776994
 30
0.0
 10
270.1348321114
 20
723.2695128059
 30
0.0
 10
270.1029833148
 20
723.3092126961
 30
0.0
 10
270.0916990996
 20
723.341759993
 30
0.0
  0
SPLINE
  5
4C8
100
AcDbEntity
  8
0
100
AcDbSpline
 62
7
  6
BYLAYER
 70
0
 71
3
 72
9
 73
5
 74
0
 42
0.0000001
 43
0.0000001
 44
0.0000000001
 40
0.0
 40
0.0
 40
0.0
 40
0.0
 40
0.2412953819
 40
1.0
 40
1.0
 40
1.0
 40
1.0
 10
285.1632730611
 20
715.2830801004
 30
0.0
 10
285.1468330994
 20
715.2779398255
 30
0.0
 10
285.0777066429
 20
715.2598955521
 30
0.0
 10
285.0055921421
 20
715.2538722573
 30
0.0
 10
284.9514578608
 20
715.2555411713
 30
0.0
  0
SPLINE
  5
4C9
100
AcDbEntity
  8
0
100
AcDbSpline
 62
7
  6
BYLAYER
 70
0
 71
3
 72
9
 73
5
 74
0
 42
0.0000001
 43
0.0000001
 44
0.0000000001
 40
0.0
 40
0.0
 40
0.0
 40
0.0
 40
0.4965566634
 40
1.0
 40
1.0
 40
1.0
 40
1.0
 10
285.6208271544
 20
715.272832078
 30
0.0
 10
285.548939674
 20
715.2995449423
 30
0.0
 10
285.3935745078
 20
715.3252237289
 30
0.0
 10
285.2375156127
 20
715.3061820045
 30
0.0
 10
285.1632730611
 20
715.2830801004
 30
0.0
  0
SPLINE
  5
4CA
100
AcDbEntity
  8
0
100
AcDbSpline
 62
7
  6
BYLAYER
 70
0
 71
3
 72
9
 73
5
 74
0
 42
0.0000001
 43
0.0000001
 44
0.0000000001
 40
0.0
 40
0.0
 40
0.0
 40
0.0
 40
0.2469319429
 40
1.0
 40
1.0
 40
1.0
 40
1.0
 10
289.9224370759
 20
714.3494378087
 30
0.0
 10
289.8705264403
 20
714.3395356914
 30
0.0
 10
289.6596258902
 20
714.3030551306
 30
0.0
 10
289.4462989027
 20
714.2807756612
 30
0.0
 10
289.2853893964
 20
714.2716813642
 30
0.0
  0
SPLINE
  5
4CB
100
AcDbEntity
  8
0
100
AcDbSpline
 62
7
  6
BYLAYER
 70
0
 71
3
 72
9
 73
5
 74
0
 42
0.0000001
 43
0.0000001
 44
0.0000000001
 40
0.0
 40
0.0
 40
0.0
 40
0.0
 40
0.4492655925
 40
1.0
 40
1.0
 40
1.0
 40
1.0
 10
291.566656772
 20
715.1321468095
 30
0.0
 10
291.5470866358
 20
715.0654437923
 30
0.0
 10
291.4543155297
 20
714.9318755305
 30
0.0
 10
291.320119478
 20
714.8495922998
 30
0.0
 10
291.2428114961
 20
714.8137447833
 30
0.0
  0
SPLINE
  5
4CC
100
AcDbEntity
  8
0
100
AcDbSpline
 62
7
  6
BYLAYER
 70
0
 71
3
 72
9
 73
5
 74
0
 42
0.0000001
 43
0.0000001
 44
0.0000000001
 40
0.0
 40
0.0
 40
0.0
 40
0.0
 40
0.5118166122
 40
1.0
 40
1.0
 40
1.0
 40
1.0
 10
304.8301278851
 20
722.7897697171
 30
0.0
 10
304.7222755615
 20
722.7792218132
 30
0.0
 10
304.5089299063
 20
722.7807849469
 30
0.0
 10
304.2999729025
 20
722.8263694979
 30
0.0
 10
304.2027443224
 20
722.8614482415
 30
0.0
  0
SPLINE
  5
4CD
100
AcDbEntity
  8
0
100
AcDbSpline
 62
7
  6
BYLAYER
 70
0
 71
3
 72
9
 73
5
 74
0
 42
0.0000001
 43
0.0000001
 44
0.0000000001
 40
0.0
 40
0.0
 40
0.0
 40
0.0
 40
0.4663870088
 40
1.0
 40
1.0
 40
1.0
 40
1.0
 10
304.6163444423
 20
729.058508213
 30
0.0
 10
304.6143330916
 20
729.0802514729
 30
0.0
 10
304.597963129
 20
729.1260417522
 30
0.0
 10
304.5655027273
 20
729.1611182879
 30
0.0
 10
304.5463575963
 20
729.1771695729
 30
0.0
  0
SPLINE
  5
4CE
100
AcDbEntity
  8
0
100
AcDbSpline
 62
7
  6
BYLAYER
 70
0
 71
3
 72
9
 73
5
 74
0
 42
0.0000001
 43
0.0000001
 44
0.0000000001
 40
0.0
 40
0.0
 40
0.0
 40
0.0
 40
0.5339031209
 40
1.0
 40
1.0
 40
1.0
 40
1.0
 10
304.9955160228
 20
728.553317495
 30
0.0
 10
304.9237426224
 20
728.5505241683
 30
0.0
 10
304.7882316152
 20
728.5632389623
 30
0.0
 10
304.6601818724
 20
728.6156828398
 30
0.0
 10
304.6097983598
 20
728.6530122711
 30
0.0
  0
SPLINE
  5
4CF
100
AcDbEntity
  8
0
100
AcDbSpline
 62
7
  6
BYLAYER
 70
0
 71
3
 72
9
 73
5
 74
0
 42
0.0000001
 43
0.0000001
 44
0.0000000001
 40
0.0
 40
0.0
 40
0.0
 40
0.0
 40
0.2441253337
 40
1.0
 40
1.0
 40
1.0
 40
1.0
 10
305.1819128944
 20
728.5355427992
 30
0.0
 10
305.1670977771
 20
728.5392287017
 30
0.0
 10
305.1058273297
 20
728.5519076436
 30
0.0
 10
305.0427358693
 20
728.5554893488
 30
0.0
 10
304.9955160228
 20
728.553317495
 30
0.0
  0
SPLINE
  5
4D0
100
AcDbEntity
  8
0
100
AcDbSpline
 62
7
  6
BYLAYER
 70
0
 71
3
 72
9
 73
5
 74
0
 42
0.0000001
 43
0.0000001
 44
0.0000000001
 40
0.0
 40
0.0
 40
0.0
 40
0.0
 40
0.2305290833
 40
1.0
 40
1.0
 40
1.0
 40
1.0
 10
305.3323026995
 20
728.469527213
 30
0.0
 10
305.3220132885
 20
728.4769104673
 30
0.0
 10
305.2754283132
 20
728.5062123524
 30
0.0
 10
305.2229338859
 20
728.5253370497
 30
0.0
 10
305.1819128944
 20
728.5355427992
 30
0.0
  0
SPLINE
  5
4D1
100
AcDbEntity
  8
0
100
AcDbSpline
 62
7
  6
BYLAYER
 70
0
 71
3
 72
9
 73
5
 74
0
 42
0.0000001
 43
0.0000001
 44
0.0000000001
 40
0.0
 40
0.0
 40
0.0
 40
0.0
 40
0.2449524714
 40
1.0
 40
1.0
 40
1.0
 40
1.0
 10
305.706671651
 20
728.0695329876
 30
0.0
 10
305.6780481121
 20
728.1039271041
 30
0.0
 10
305.559084422
 20
728.2425746077
 30
0.0
 10
305.4319600461
 20
728.3741721365
 30
0.0
 10
305.3323026995
 20
728.469527213
 30
0.0
  0
SPLINE
  5
4D2
100
AcDbEntity
  8
0
100
AcDbSpline
 62
7
  6
BYLAYER
 70
0
 71
3
 72
9
 73
5
 74
0
 42
0.0000001
 43
0.0000001
 44
0.0000000001
 40
0.0
 40
0.0
 40
0.0
 40
0.0
 40
0.2452164937
 40
1.0
 40
1.0
 40
1.0
 40
1.0
 10
306.0136323735
 20
727.6508397611
 30
0.0
 10
305.9908002672
 20
727.6866286407
 30
0.0
 10
305.8952568646
 20
727.8310159781
 30
0.0
 10
305.790257146
 20
727.9690964464
 30
0.0
 10
305.706671651
 20
728.0695329876
 30
0.0
  0
SPLINE
  5
4D3
100
AcDbEntity
  8
0
100
AcDbSpline
 62
7
  6
BYLAYER
 70
0
 71
3
 72
9
 73
5
 74
0
 42
0.0000001
 43
0.0000001
 44
0.0000000001
 40
0.0
 40
0.0
 40
0.0
 40
0.0
 40
0.2453105191
 40
1.0
 40
1.0
 40
1.0
 40
1.0
 10
306.1974296247
 20
727.2963384006
 30
0.0
 10
306.1849035116
 20
727.3265152443
 30
0.0
 10
306.1311590797
 20
727.4484070755
 30
0.0
 10
306.0669283517
 20
727.5656137372
 30
0.0
 10
306.0136323735
 20
727.6508397611
 30
0.0
  0
SPLINE
  5
4D4
100
AcDbEntity
  8
0
100
AcDbSpline
 62
7
  6
BYLAYER
 70
0
 71
3
 72
9
 73
5
 74
0
 42
0.0000001
 43
0.0000001
 44
0.0000000001
 40
0.0
 40
0.0
 40
0.0
 40
0.0
 40
0.2468477134
 40
1.0
 40
1.0
 40
1.0
 40
1.0
 10
306.3119132736
 20
726.9322468475
 30
0.0
 10
306.3052836177
 20
726.9629685138
 30
0.0
 10
306.2755147968
 20
727.0867843212
 30
0.0
 10
306.234192159
 20
727.2077732374
 30
0.0
 10
306.1974296247
 20
727.2963384006
 30
0.0
  0
SPLINE
  5
4D5
100
AcDbEntity
  8
0
100
AcDbSpline
 62
7
  6
BYLAYER
 70
0
 71
3
 72
11
 73
7
 74
0
 42
0.0000001
 43
0.0000001
 44
0.0000000001
 40
0.0
 40
0.0
 40
0.0
 40
0.0
 40
0.2177159471
 40
0.4509403815
 40
0.7102937689
 40
1.0
 40
1.0
 40
1.0
 40
1.0
 10
271.2485111097
 20
733.2827237696
 30
0.0
 10
271.2485113293
 20
733.2522624001
 30
0.0
 10
271.259792333
 20
733.1887541033
 30
0.0
 10
271.3079040673
 20
733.1002447326
 30
0.0
 10
271.384050296
 20
733.0202666627
 30
0.0
 10
271.4477245652
 20
732.9763969115
 30
0.0
 10
271.4828280399
 20
732.9561303694
 30
0.0
  0
SPLINE
  5
4D6
100
AcDbEntity
  8
0
100
AcDbSpline
 62
7
  6
BYLAYER
 70
0
 71
3
 72
9
 73
5
 74
0
 42
0.0000001
 43
0.0000001
 44
0.0000000001
 40
0.0
 40
0.0
 40
0.0
 40
0.0
 40
0.2254562211
 40
1.0
 40
1.0
 40
1.0
 40
1.0
 10
270.0916990996
 20
725.7912672444
 30
0.0
 10
270.0952391901
 20
725.7810564878
 30
0.0
 10
270.1159372221
 20
725.7374452832
 30
0.0
 10
270.1534009617
 20
725.7037320114
 30
0.0
 10
270.1845052416
 20
725.6834604007
 30
0.0
  0
SPLINE
  5
4D7
100
AcDbEntity
  8
0
100
AcDbSpline
 62
7
  6
BYLAYER
 70
0
 71
3
 72
9
 73
5
 74
0
 42
0.0000001
 43
0.0000001
 44
0.0000000001
 40
0.0
 40
0.0
 40
0.0
 40
0.0
 40
0.5425997093
 40
1.0
 40
1.0
 40
1.0
 40
1.0
 10
270.0268302862
 20
726.1608926138
 30
0.0
 10
270.0565564902
 20
726.1400938056
 30
0.0
 10
270.1071947791
 20
726.0934346161
 30
0.0
 10
270.1297311627
 20
726.0261229242
 30
0.0
 10
270.1297364711
 20
725.9955396468
 30
0.0
  0
SPLINE
  5
4D8
100
AcDbEntity
  8
0
100
AcDbSpline
 62
7
  6
BYLAYER
 70
0
 71
3
 72
8
 73
4
 74
0
 42
0.0000001
 43
0.0000001
 44
0.0000000001
 40
0.0
 40
0.0
 40
0.0
 40
0.0
 40
1.0
 40
1.0
 40
1.0
 40
1.0
 10
270.083918568
 20
725.8365937499
 30
0.0
 10
270.0839196789
 20
725.8212639359
 30
0.0
 10
270.0866774653
 20
725.8057512489
 30
0.0
 10
270.0916990996
 20
725.7912672444
 30
0.0
  0
SPLINE
  5
4D9
100
AcDbEntity
  8
0
100
AcDbSpline
 62
7
  6
BYLAYER
 70
0
 71
3
 72
9
 73
5
 74
0
 42
0.0000001
 43
0.0000001
 44
0.0000000001
 40
0.0
 40
0.0
 40
0.0
 40
0.0
 40
0.2644748409
 40
1.0
 40
1.0
 40
1.0
 40
1.0
 10
271.3023077747
 20
730.6666974932
 30
0.0
 10
271.2936556939
 20
730.6796211796
 30
0.0
 10
271.2639113138
 20
730.7303438771
 30
0.0
 10
271.2485114216
 20
730.7899638102
 30
0.0
 10
271.2485111097
 20
730.8332165182
 30
0.0
  0
SPLINE
  5
4DA
100
AcDbEntity
  8
0
100
AcDbSpline
 62
7
  6
BYLAYER
 70
0
 71
3
 72
9
 73
5
 74
0
 42
0.0000001
 43
0.0000001
 44
0.0000000001
 40
0.0
 40
0.0
 40
0.0
 40
0.0
 40
0.5507561204
 40
1.0
 40
1.0
 40
1.0
 40
1.0
 10
274.9829985108
 20
734.0788055319
 30
0.0
 10
275.0160792529
 20
734.0979045933
 30
0.0
 10
275.072920477
 20
734.1414189398
 30
0.0
 10
275.1001548454
 20
734.210944994
 30
0.0
 10
275.1001546207
 20
734.2421027952
 30
0.0
  0
SPLINE
  5
4DB
100
AcDbEntity
  8
0
100
AcDbSpline
 62
7
  6
BYLAYER
 70
0
 71
3
 72
9
 73
5
 74
0
 42
0.0000001
 43
0.0000001
 44
0.0000000001
 40
0.0
 40
0.0
 40
0.0
 40
0.0
 40
0.4492438796
 40
1.0
 40
1.0
 40
1.0
 40
1.0
 10
274.0173177962
 20
733.425615284
 30
0.0
 10
274.0173175715
 20
733.4567730851
 30
0.0
 10
274.0445519398
 20
733.5262991393
 30
0.0
 10
274.101393164
 20
733.5698134859
 30
0.0
 10
274.1344739061
 20
733.5889125472
 30
0.0
  0
SPLINE
  5
4DC
100
AcDbEntity
  8
0
100
AcDbSpline
 62
7
  6
BYLAYER
 70
0
 71
3
 72
9
 73
5
 74
0
 42
0.0000001
 43
0.0000001
 44
0.0000000001
 40
0.0
 40
0.0
 40
0.0
 40
0.0
 40
0.2401434072
 40
1.0
 40
1.0
 40
1.0
 40
1.0
 10
285.8253780954
 20
717.46901841
 30
0.0
 10
285.8253785305
 20
717.4612553932
 30
0.0
 10
285.8281963253
 20
717.428905207
 30
0.0
 10
285.8429830952
 20
717.3983099874
 30
0.0
 10
285.8576760778
 20
717.3786253421
 30
0.0
  0
SPLINE
  5
4DD
100
AcDbEntity
  8
0
100
AcDbSpline
 62
7
  6
BYLAYER
 70
0
 71
3
 72
9
 73
5
 74
0
 42
0.0000001
 43
0.0000001
 44
0.0000000001
 40
0.0
 40
0.0
 40
0.0
 40
0.0
 40
0.5313178587
 40
1.0
 40
1.0
 40
1.0
 40
1.0
 10
269.6174683186
 20
726.2528441366
 30
0.0
 10
269.6925390016
 20
726.2588998866
 30
0.0
 10
269.8358194857
 20
726.250223159
 30
0.0
 10
269.9723956771
 20
726.1989793805
 30
0.0
 10
270.0268302862
 20
726.1608926138
 30
0.0
  0
SPLINE
  5
4DE
100
AcDbEntity
  8
0
100
AcDbSpline
 62
7
  6
BYLAYER
 70
0
 71
3
 72
9
 73
5
 74
0
 42
0.0000001
 43
0.0000001
 44
0.0000000001
 40
0.0
 40
0.0
 40
0.0
 40
0.0
 40
0.2445254536
 40
1.0
 40
1.0
 40
1.0
 40
1.0
 10
269.4069048397
 20
726.2687171657
 30
0.0
 10
269.4236687719
 20
726.2646423197
 30
0.0
 10
269.4929304679
 20
726.2509877213
 30
0.0
 10
269.5643397108
 20
726.2485583947
 30
0.0
 10
269.6174683186
 20
726.2528441366
 30
0.0
  0
SPLINE
  5
4DF
100
AcDbEntity
  8
0
100
AcDbSpline
 62
7
  6
BYLAYER
 70
0
 71
3
 72
9
 73
5
 74
0
 42
0.0000001
 43
0.0000001
 44
0.0000000001
 40
0.0
 40
0.0
 40
0.0
 40
0.0
 40
0.5507565647
 40
1.0
 40
1.0
 40
1.0
 40
1.0
 10
282.9025720858
 20
737.1814672201
 30
0.0
 10
282.9356531231
 20
737.1623683065
 30
0.0
 10
282.9924948744
 20
737.1188542964
 30
0.0
 10
283.0197303263
 20
737.0493284135
 30
0.0
 10
283.0197305509
 20
737.0181705201
 30
0.0
  0
SPLINE
  5
4E0
100
AcDbEntity
  8
0
100
AcDbSpline
 62
7
  6
BYLAYER
 70
0
 71
3
 72
10
 73
6
 74
0
 42
0.0000001
 43
0.0000001
 44
0.0000000001
 40
0.0
 40
0.0
 40
0.0
 40
0.0
 40
0.2225121574
 40
0.4580560284
 40
1.0
 40
1.0
 40
1.0
 40
1.0
 10
270.9830454044
 20
727.7814544548
 30
0.0
 10
270.9830417986
 20
727.7538525326
 30
0.0
 10
270.9921528944
 20
727.6966887043
 30
0.0
 10
271.0469810614
 20
727.5839349321
 30
0.0
 10
271.1214773712
 20
727.5167004891
 30
0.0
 10
271.1775324339
 20
727.4795895564
 30
0.0
  0
SPLINE
  5
4E1
100
AcDbEntity
  8
0
100
AcDbSpline
 62
7
  6
BYLAYER
 70
0
 71
3
 72
9
 73
5
 74
0
 42
0.0000001
 43
0.0000001
 44
0.0000000001
 40
0.0
 40
0.0
 40
0.0
 40
0.0
 40
0.2671440672
 40
1.0
 40
1.0
 40
1.0
 40
1.0
 10
281.6297752704
 20
737.8206434211
 30
0.0
 10
281.6558216015
 20
737.8206434837
 30
0.0
 10
281.7530132332
 20
737.8151195102
 30
0.0
 10
281.8507381266
 20
737.7887301015
 30
0.0
 10
281.9126184706
 20
737.7530042765
 30
0.0
  0
SPLINE
  5
4E2
100
AcDbEntity
  8
0
100
AcDbSpline
 62
7
  6
BYLAYER
 70
0
 71
3
 72
9
 73
5
 74
0
 42
0.0000001
 43
0.0000001
 44
0.0000000001
 40
0.0
 40
0.0
 40
0.0
 40
0.0
 40
0.2291142508
 40
1.0
 40
1.0
 40
1.0
 40
1.0
 10
281.3469330457
 20
737.7530029167
 30
0.0
 10
281.3662909744
 20
737.7641791554
 30
0.0
 10
281.4550704088
 20
737.8054201181
 30
0.0
 10
281.5545670138
 20
737.8206432403
 30
0.0
 10
281.6297752704
 20
737.8206434211
 30
0.0
  0
SPLINE
  5
4E3
100
AcDbEntity
  8
0
100
AcDbSpline
 62
7
  6
BYLAYER
 70
0
 71
3
 72
9
 73
5
 74
0
 42
0.0000001
 43
0.0000001
 44
0.0000000001
 40
0.0
 40
0.0
 40
0.0
 40
0.0
 40
0.4744336899
 40
1.0
 40
1.0
 40
1.0
 40
1.0
 10
292.9082499561
 20
718.7901150543
 30
0.0
 10
292.8279463168
 20
718.7437520033
 30
0.0
 10
292.6412582646
 20
718.6760787976
 30
0.0
 10
292.4452857277
 20
718.6548342925
 30
0.0
 10
292.3425655067
 20
718.6548340456
 30
0.0
  0
SPLINE
  5
4E4
100
AcDbEntity
  8
0
100
AcDbSpline
 62
7
  6
BYLAYER
 70
0
 71
3
 72
9
 73
5
 74
0
 42
0.0000001
 43
0.0000001
 44
0.0000000001
 40
0.0
 40
0.0
 40
0.0
 40
0.0
 40
0.5507344075
 40
1.0
 40
1.0
 40
1.0
 40
1.0
 10
291.2428114961
 20
717.2632520347
 30
0.0
 10
291.320119478
 20
717.2990995512
 30
0.0
 10
291.4543155297
 20
717.3813827819
 30
0.0
 10
291.5470866358
 20
717.5149510437
 30
0.0
 10
291.566656772
 20
717.5816540608
 30
0.0
  0
SPLINE
  5
4E5
100
AcDbEntity
  8
0
100
AcDbSpline
 62
7
  6
BYLAYER
 70
0
 71
3
 72
9
 73
5
 74
0
 42
0.0000001
 43
0.0000001
 44
0.0000000001
 40
0.0
 40
0.0
 40
0.0
 40
0.0
 40
0.2585908371
 40
1.0
 40
1.0
 40
1.0
 40
1.0
 10
290.6261522272
 20
716.9898388212
 30
0.0
 10
290.6810386243
 20
717.0091395109
 30
0.0
 10
290.8918477008
 20
717.0877562046
 30
0.0
 10
291.0967561005
 20
717.1826670735
 30
0.0
 10
291.2428114961
 20
717.2632520347
 30
0.0
  0
SPLINE
  5
4E6
100
AcDbEntity
  8
0
100
AcDbSpline
 62
7
  6
BYLAYER
 70
0
 71
3
 72
9
 73
5
 74
0
 42
0.0000001
 43
0.0000001
 44
0.0000000001
 40
0.0
 40
0.0
 40
0.0
 40
0.0
 40
0.2557603202
 40
1.0
 40
1.0
 40
1.0
 40
1.0
 10
289.9224370759
 20
716.7989450601
 30
0.0
 10
289.9834360874
 20
716.8110633876
 30
0.0
 10
290.2211200195
 20
716.862410471
 30
0.0
 10
290.4554295673
 20
716.9298045456
 30
0.0
 10
290.6261522272
 20
716.9898388212
 30
0.0
  0
SPLINE
  5
4E7
100
AcDbEntity
  8
0
100
AcDbSpline
 62
7
  6
BYLAYER
 70
0
 71
3
 72
9
 73
5
 74
0
 42
0.0000001
 43
0.0000001
 44
0.0000000001
 40
0.0
 40
0.0
 40
0.0
 40
0.0
 40
0.2526965357
 40
1.0
 40
1.0
 40
1.0
 40
1.0
 10
289.2853893964
 20
716.7211886156
 30
0.0
 10
289.3393832148
 20
716.7242402428
 30
0.0
 10
289.5528416845
 20
716.7397470465
 30
0.0
 10
289.765338103
 20
716.7689779362
 30
0.0
 10
289.9224370759
 20
716.7989450601
 30
0.0
  0
SPLINE
  5
4E8
100
AcDbEntity
  8
0
100
AcDbSpline
 62
7
  6
BYLAYER
 70
0
 71
3
 72
9
 73
5
 74
0
 42
0.0000001
 43
0.0000001
 44
0.0000000001
 40
0.0
 40
0.0
 40
0.0
 40
0.0
 40
0.226150704
 40
1.0
 40
1.0
 40
1.0
 40
1.0
 10
285.8576760778
 20
717.3786253421
 30
0.0
 10
285.8641766777
 20
717.3699162865
 30
0.0
 10
285.8961083301
 20
717.3337730298
 30
0.0
 10
285.9379521857
 20
717.3074845611
 30
0.0
 10
285.9716234233
 20
717.2917005438
 30
0.0
  0
SPLINE
  5
4E9
100
AcDbEntity
  8
0
100
AcDbSpline
 62
7
  6
BYLAYER
 70
0
 71
3
 72
9
 73
5
 74
0
 42
0.0000001
 43
0.0000001
 44
0.0000000001
 40
0.0
 40
0.0
 40
0.0
 40
0.0
 40
0.4492434353
 40
1.0
 40
1.0
 40
1.0
 40
1.0
 10
279.0377438533
 20
737.8754701024
 30
0.0
 10
279.037744078
 20
737.844312209
 30
0.0
 10
279.0649795299
 20
737.774786326
 30
0.0
 10
279.1218212812
 20
737.731272316
 30
0.0
 10
279.1549023184
 20
737.7121734023
 30
0.0
  0
SPLINE
  5
4EA
100
AcDbEntity
  8
0
100
AcDbSpline
 62
7
  6
BYLAYER
 70
0
 71
3
 72
11
 73
7
 74
0
 42
0.0000001
 43
0.0000001
 44
0.0000000001
 40
0.0
 40
0.0
 40
0.0
 40
0.0
 40
0.3001665598
 40
0.5641973456
 40
0.7932685561
 40
1.0
 40
1.0
 40
1.0
 40
1.0
 10
285.6208271544
 20
717.7223393294
 30
0.0
 10
285.6506850586
 20
717.7112443496
 30
0.0
 10
285.7052820448
 20
717.6856254593
 30
0.0
 10
285.7725682005
 20
717.6336480896
 30
0.0
 10
285.8167396955
 20
717.5722259921
 30
0.0
 10
285.8274900226
 20
717.5255695254
 30
0.0
 10
285.8275022801
 20
717.5036318757
 30
0.0
  0
SPLINE
  5
4EB
100
AcDbEntity
  8
0
100
AcDbSpline
 62
7
  6
BYLAYER
 70
0
 71
3
 72
9
 73
5
 74
0
 42
0.0000001
 43
0.0000001
 44
0.0000000001
 40
0.0
 40
0.0
 40
0.0
 40
0.0
 40
0.5034433366
 40
1.0
 40
1.0
 40
1.0
 40
1.0
 10
285.1632730612
 20
717.7325873518
 30
0.0
 10
285.2375156127
 20
717.7556892559
 30
0.0
 10
285.3935745078
 20
717.7747309803
 30
0.0
 10
285.548939674
 20
717.7490521937
 30
0.0
 10
285.6208271544
 20
717.7223393294
 30
0.0
  0
SPLINE
  5
4EC
100
AcDbEntity
  8
0
100
AcDbSpline
 62
7
  6
BYLAYER
 70
0
 71
3
 72
9
 73
5
 74
0
 42
0.0000001
 43
0.0000001
 44
0.0000000001
 40
0.0
 40
0.0
 40
0.0
 40
0.0
 40
0.2564492785
 40
1.0
 40
1.0
 40
1.0
 40
1.0
 10
284.9514578608
 20
717.7050484226
 30
0.0
 10
284.969753844
 20
717.704484373
 30
0.0
 10
285.0411293336
 20
717.7051285044
 30
0.0
 10
285.1126186799
 20
717.7167492709
 30
0.0
 10
285.1632730612
 20
717.7325873518
 30
0.0
  0
SPLINE
  5
4ED
100
AcDbEntity
  8
0
100
AcDbSpline
 62
7
  6
BYLAYER
 70
0
 71
3
 72
9
 73
5
 74
0
 42
0.0000001
 43
0.0000001
 44
0.0000000001
 40
0.0
 40
0.0
 40
0.0
 40
0.0
 40
0.237769042
 40
1.0
 40
1.0
 40
1.0
 40
1.0
 10
284.7459268357
 20
717.7454537813
 30
0.0
 10
284.7613977153
 20
717.7393031155
 30
0.0
 10
284.8277877942
 20
717.7168132748
 30
0.0
 10
284.8981114754
 20
717.7066930464
 30
0.0
 10
284.9514578608
 20
717.7050484226
 30
0.0
  0
SPLINE
  5
4EE
100
AcDbEntity
  8
0
100
AcDbSpline
 62
7
  6
BYLAYER
 70
0
 71
3
 72
9
 73
5
 74
0
 42
0.0000001
 43
0.0000001
 44
0.0000000001
 40
0.0
 40
0.0
 40
0.0
 40
0.0
 40
0.5222384812
 40
1.0
 40
1.0
 40
1.0
 40
1.0
 10
281.7513847302
 20
719.2640042963
 30
0.0
 10
281.6517046082
 20
719.2624786537
 30
0.0
 10
281.4600419291
 20
719.2797507128
 30
0.0
 10
281.2762054186
 20
719.3402547894
 30
0.0
 10
281.1952624338
 20
719.3822778402
 30
0.0
  0
SPLINE
  5
4EF
100
AcDbEntity
  8
0
100
AcDbSpline
 62
7
  6
BYLAYER
 70
0
 71
3
 72
9
 73
5
 74
0
 42
0.0000001
 43
0.0000001
 44
0.0000000001
 40
0.0
 40
0.0
 40
0.0
 40
0.0
 40
0.4744713384
 40
1.0
 40
1.0
 40
1.0
 40
1.0
 10
282.2958718919
 20
719.3991230918
 30
0.0
 10
282.2184447729
 20
719.3544207906
 30
0.0
 10
282.0390023815
 20
719.2881886945
 30
0.0
 10
281.8503989072
 20
719.2655197464
 30
0.0
 10
281.7513847302
 20
719.2640042963
 30
0.0
  0
SPLINE
  5
4F0
100
AcDbEntity
  8
0
100
AcDbSpline
 62
7
  6
BYLAYER
 70
0
 71
3
 72
9
 73
5
 74
0
 42
0.0000001
 43
0.0000001
 44
0.0000000001
 40
0.0
 40
0.0
 40
0.0
 40
0.0
 40
0.5255657768
 40
1.0
 40
1.0
 40
1.0
 40
1.0
 10
292.3425655067
 20
718.6548340456
 30
0.0
 10
292.2398451737
 20
718.6548337987
 30
0.0
 10
292.0438721257
 20
718.6760774353
 30
0.0
 10
291.8571833391
 20
718.7437497132
 30
0.0
 10
291.7768791062
 20
718.7901123348
 30
0.0
  0
SPLINE
  5
4F1
100
AcDbEntity
  8
0
100
AcDbSpline
 62
7
  6
BYLAYER
 70
0
 71
3
 72
9
 73
5
 74
0
 42
0.0000001
 43
0.0000001
 44
0.0000000001
 40
0.0
 40
0.0
 40
0.0
 40
0.0
 40
0.2280681833
 40
1.0
 40
1.0
 40
1.0
 40
1.0
 10
269.24008493
 20
726.3445755514
 30
0.0
 10
269.2510989166
 20
726.3359449407
 30
0.0
 10
269.3020757544
 20
726.3015338439
 30
0.0
 10
269.3608844606
 20
726.279903441
 30
0.0
 10
269.4069048397
 20
726.2687171657
 30
0.0
  0
SPLINE
  5
4F2
100
AcDbEntity
  8
0
100
AcDbSpline
 62
7
  6
BYLAYER
 70
0
 71
3
 72
9
 73
5
 74
0
 42
0.0000001
 43
0.0000001
 44
0.0000000001
 40
0.0
 40
0.0
 40
0.0
 40
0.0
 40
0.2449312445
 40
1.0
 40
1.0
 40
1.0
 40
1.0
 10
268.5505147852
 20
726.9428168179
 30
0.0
 10
268.604174359
 20
726.891061393
 30
0.0
 10
268.8261316093
 20
726.6827501505
 30
0.0
 10
269.0591826972
 20
726.4863313747
 30
0.0
 10
269.24008493
 20
726.3445755514
 30
0.0
  0
SPLINE
  5
4F3
100
AcDbEntity
  8
0
100
AcDbSpline
 62
7
  6
BYLAYER
 70
0
 71
3
 72
9
 73
5
 74
0
 42
0.0000001
 43
0.0000001
 44
0.0000000001
 40
0.0
 40
0.0
 40
0.0
 40
0.0
 40
0.2449255914
 40
1.0
 40
1.0
 40
1.0
 40
1.0
 10
267.9630115137
 20
727.576331091
 30
0.0
 10
268.0078638886
 20
727.5218601038
 30
0.0
 10
268.1943700959
 20
727.3022571739
 30
0.0
 10
268.3939450054
 20
727.0938306055
 30
0.0
 10
268.5505147852
 20
726.9428168179
 30
0.0
  0
SPLINE
  5
4F4
100
AcDbEntity
  8
0
100
AcDbSpline
 62
7
  6
BYLAYER
 70
0
 71
3
 72
9
 73
5
 74
0
 42
0.0000001
 43
0.0000001
 44
0.0000000001
 40
0.0
 40
0.0
 40
0.0
 40
0.0
 40
0.5255186429
 40
1.0
 40
1.0
 40
1.0
 40
1.0
 10
304.5686466997
 20
728.9362181691
 30
0.0
 10
304.5833055239
 20
728.951845635
 30
0.0
 10
304.6075141531
 20
728.9857435532
 30
0.0
 10
304.6169078631
 20
729.0268464906
 30
0.0
 10
304.6169117548
 20
729.0461921753
 30
0.0
  0
SPLINE
  5
4F5
100
AcDbEntity
  8
0
100
AcDbSpline
 62
7
  6
BYLAYER
 70
0
 71
3
 72
11
 73
7
 74
0
 42
0.0000001
 43
0.0000001
 44
0.0000000001
 40
0.0
 40
0.0
 40
0.0
 40
0.0
 40
0.2897060281
 40
0.5490591642
 40
0.7822835676
 40
1.0
 40
1.0
 40
1.0
 40
1.0
 10
301.6743984301
 20
733.0367610724
 30
0.0
 10
301.7095015999
 20
733.0570277759
 30
0.0
 10
301.7731752364
 20
733.1008978273
 30
0.0
 10
301.8493203523
 20
733.1808763061
 30
0.0
 10
301.8974308252
 20
733.269385986
 30
0.0
 10
301.9087108697
 20
733.3328942781
 30
0.0
 10
301.90871065
 20
733.3633555989
 30
0.0
  0
SPLINE
  5
4F6
100
AcDbEntity
  8
0
100
AcDbSpline
 62
7
  6
BYLAYER
 70
0
 71
3
 72
11
 73
7
 74
0
 42
0.0000001
 43
0.0000001
 44
0.0000000001
 40
0.0
 40
0.0
 40
0.0
 40
0.0
 40
0.2177716243
 40
0.4509506744
 40
0.7102000518
 40
1.0
 40
1.0
 40
1.0
 40
1.0
 10
298.8152132537
 20
730.6088019568
 30
0.0
 10
298.8152123611
 20
730.7325846445
 30
0.0
 10
298.8609019464
 20
730.9906399473
 30
0.0
 10
299.0565757344
 20
731.3500381447
 30
0.0
 10
299.3656842457
 20
731.6751060269
 30
0.0
 10
299.6244512518
 20
731.8532305818
 30
0.0
 10
299.767106647
 20
731.935592221
 30
0.0
  0
SPLINE
  5
4F7
100
AcDbEntity
  8
0
100
AcDbSpline
 62
7
  6
BYLAYER
 70
0
 71
3
 72
9
 73
5
 74
0
 42
0.0000001
 43
0.0000001
 44
0.0000000001
 40
0.0
 40
0.0
 40
0.0
 40
0.0
 40
0.2587446645
 40
1.0
 40
1.0
 40
1.0
 40
1.0
 10
306.1858253319
 20
726.1885605992
 30
0.0
 10
306.202652082
 20
726.2179646384
 30
0.0
 10
306.2631995864
 20
726.3340697065
 30
0.0
 10
306.3042764555
 20
726.46066627
 30
0.0
 10
306.3205000651
 20
726.5563556378
 30
0.0
  0
SPLINE
  5
4F8
100
AcDbEntity
  8
0
100
AcDbSpline
 62
7
  6
BYLAYER
 70
0
 71
3
 72
9
 73
5
 74
0
 42
0.0000001
 43
0.0000001
 44
0.0000000001
 40
0.0
 40
0.0
 40
0.0
 40
0.0
 40
0.2618850736
 40
1.0
 40
1.0
 40
1.0
 40
1.0
 10
305.8551887717
 20
725.7822746859
 30
0.0
 10
305.88843232
 20
725.8137865238
 30
0.0
 10
306.0117313745
 20
725.9378157908
 30
0.0
 10
306.11973041
 20
726.0776619423
 30
0.0
 10
306.1858253319
 20
726.1885605992
 30
0.0
  0
SPLINE
  5
4F9
100
AcDbEntity
  8
0
100
AcDbSpline
 62
7
  6
BYLAYER
 70
0
 71
3
 72
9
 73
5
 74
0
 42
0.0000001
 43
0.0000001
 44
0.0000000001
 40
0.0
 40
0.0
 40
0.0
 40
0.0
 40
0.2613528658
 40
1.0
 40
1.0
 40
1.0
 40
1.0
 10
305.3816215589
 20
725.426249104
 30
0.0
 10
305.4258460844
 20
725.452966883
 30
0.0
 10
305.5925960902
 20
725.5591430795
 30
0.0
 10
305.749207771
 20
725.6818144073
 30
0.0
 10
305.8551887717
 20
725.7822746859
 30
0.0
  0
SPLINE
  5
4FA
100
AcDbEntity
  8
0
100
AcDbSpline
 62
7
  6
BYLAYER
 70
0
 71
3
 72
9
 73
5
 74
0
 42
0.0000001
 43
0.0000001
 44
0.0000000001
 40
0.0
 40
0.0
 40
0.0
 40
0.0
 40
0.5317168409
 40
1.0
 40
1.0
 40
1.0
 40
1.0
 10
304.8301278851
 20
725.2392769685
 30
0.0
 10
304.9336885164
 20
725.249405147
 30
0.0
 10
305.1270985412
 20
725.2880610026
 30
0.0
 10
305.3072112132
 20
725.372759138
 30
0.0
 10
305.3816215589
 20
725.426249104
 30
0.0
  0
SPLINE
  5
4FB
100
AcDbEntity
  8
0
100
AcDbSpline
 62
7
  6
BYLAYER
 70
0
 71
3
 72
9
 73
5
 74
0
 42
0.0000001
 43
0.0000001
 44
0.0000000001
 40
0.0
 40
0.0
 40
0.0
 40
0.0
 40
0.4881833878
 40
1.0
 40
1.0
 40
1.0
 40
1.0
 10
304.2027443223
 20
725.3109554929
 30
0.0
 10
304.2999729025
 20
725.2758767493
 30
0.0
 10
304.5089299063
 20
725.2302921982
 30
0.0
 10
304.7222755615
 20
725.2287290646
 30
0.0
 10
304.8301278851
 20
725.2392769685
 30
0.0
  0
SPLINE
  5
4FC
100
AcDbEntity
  8
0
100
AcDbSpline
 62
7
  6
BYLAYER
 70
0
 71
3
 72
11
 73
7
 74
0
 42
0.0000001
 43
0.0000001
 44
0.0000000001
 40
0.0
 40
0.0
 40
0.0
 40
0.0
 40
0.2177164324
 40
0.4509408358
 40
0.7102939719
 40
1.0
 40
1.0
 40
1.0
 40
1.0
 10
302.9713055132
 20
724.7913033198
 30
0.0
 10
302.9713057328
 20
724.7608419989
 30
0.0
 10
302.9600256883
 20
724.6973337068
 30
0.0
 10
302.9119152155
 20
724.608824027
 30
0.0
 10
302.8357700995
 20
724.5288455482
 30
0.0
 10
302.772096463
 20
724.4849754967
 30
0.0
 10
302.7369932933
 20
724.4647087932
 30
0.0
  0
SPLINE
  5
4FD
100
AcDbEntity
  8
0
100
AcDbSpline
 62
7
  6
BYLAYER
 70
0
 71
3
 72
9
 73
5
 74
0
 42
0.0000001
 43
0.0000001
 44
0.0000000001
 40
0.0
 40
0.0
 40
0.0
 40
0.0
 40
0.4657956456
 40
1.0
 40
1.0
 40
1.0
 40
1.0
 10
301.90871065
 20
730.9138483475
 30
0.0
 10
301.9087109863
 20
730.8672206478
 30
0.0
 10
301.8803118884
 20
730.7662696807
 30
0.0
 10
301.8118796429
 20
730.6896349888
 30
0.0
 10
301.7711829503
 20
730.654944597
 30
0.0
  0
SPLINE
  5
4FE
100
AcDbEntity
  8
0
100
AcDbSpline
 62
7
  6
BYLAYER
 70
0
 71
3
 72
9
 73
5
 74
0
 42
0.0000001
 43
0.0000001
 44
0.0000000001
 40
0.0
 40
0.0
 40
0.0
 40
0.0
 40
0.2430667062
 40
1.0
 40
1.0
 40
1.0
 40
1.0
 10
267.7169425753
 20
728.1547665895
 30
0.0
 10
267.7223561899
 20
728.1181268811
 30
0.0
 10
267.7523471389
 20
727.9685495525
 30
0.0
 10
267.8132006051
 20
727.8258212574
 30
0.0
 10
267.8713494373
 20
727.7262138135
 30
0.0
  0
SPLINE
  5
4FF
100
AcDbEntity
  8
0
100
AcDbSpline
 62
7
  6
BYLAYER
 70
0
 71
3
 72
11
 73
7
 74
0
 42
0.0000001
 43
0.0000001
 44
0.0000000001
 40
0.0
 40
0.0
 40
0.0
 40
0.0
 40
0.2897060281
 40
0.5490591642
 40
0.7822835677
 40
1.0
 40
1.0
 40
1.0
 40
1.0
 10
302.7369932928
 20
726.9142160442
 30
0.0
 10
302.7720964626
 20
726.9344827478
 30
0.0
 10
302.8357700992
 20
726.9783527993
 30
0.0
 10
302.9119152154
 20
727.0583312781
 30
0.0
 10
302.9600256883
 20
727.146840958
 30
0.0
 10
302.9713057328
 20
727.2103492503
 30
0.0
 10
302.9713055132
 20
727.2408105711
 30
0.0
  0
SPLINE
  5
500
100
AcDbEntity
  8
0
100
AcDbSpline
 62
7
  6
BYLAYER
 70
0
 71
3
 72
9
 73
5
 74
0
 42
0.0000001
 43
0.0000001
 44
0.0000000001
 40
0.0
 40
0.0
 40
0.0
 40
0.0
 40
0.5255663101
 40
1.0
 40
1.0
 40
1.0
 40
1.0
 10
292.3425655067
 20
721.104341297
 30
0.0
 10
292.4452857277
 20
721.1043415439
 30
0.0
 10
292.6412582646
 20
721.1255860489
 30
0.0
 10
292.8279463168
 20
721.1932592547
 30
0.0
 10
292.9082499561
 20
721.2396223057
 30
0.0
  0
SPLINE
  5
501
100
AcDbEntity
  8
0
100
AcDbSpline
 62
7
  6
BYLAYER
 70
0
 71
3
 72
9
 73
5
 74
0
 42
0.0000001
 43
0.0000001
 44
0.0000000001
 40
0.0
 40
0.0
 40
0.0
 40
0.0
 40
0.4744342232
 40
1.0
 40
1.0
 40
1.0
 40
1.0
 10
291.7768791062
 20
721.2396195862
 30
0.0
 10
291.8571833391
 20
721.1932569646
 30
0.0
 10
292.0438721257
 20
721.1255846866
 30
0.0
 10
292.2398451737
 20
721.10434105
 30
0.0
 10
292.3425655067
 20
721.104341297
 30
0.0
  0
SPLINE
  5
502
100
AcDbEntity
  8
0
100
AcDbSpline
 62
7
  6
BYLAYER
 70
0
 71
3
 72
9
 73
5
 74
0
 42
0.0000001
 43
0.0000001
 44
0.0000000001
 40
0.0
 40
0.0
 40
0.0
 40
0.0
 40
0.5255628984
 40
1.0
 40
1.0
 40
1.0
 40
1.0
 10
286.5089153039
 20
723.5037999339
 30
0.0
 10
286.9262135934
 20
723.5038009369
 30
0.0
 10
287.7223461846
 20
723.417465304
 30
0.0
 10
288.4807789884
 20
723.1425808258
 30
0.0
 10
288.8070163059
 20
722.9542318837
 30
0.0
  0
SPLINE
  5
503
100
AcDbEntity
  8
0
100
AcDbSpline
 62
7
  6
BYLAYER
 70
0
 71
3
 72
9
 73
5
 74
0
 42
0.0000001
 43
0.0000001
 44
0.0000000001
 40
0.0
 40
0.0
 40
0.0
 40
0.0
 40
0.4744365683
 40
1.0
 40
1.0
 40
1.0
 40
1.0
 10
284.2108222283
 20
722.9542208358
 30
0.0
 10
284.5370571342
 20
723.1425715223
 30
0.0
 10
285.2954869548
 20
723.4174597697
 30
0.0
 10
286.0916174693
 20
723.5037989308
 30
0.0
 10
286.5089153039
 20
723.5037999339
 30
0.0
  0
SPLINE
  5
504
100
AcDbEntity
  8
0
100
AcDbSpline
 62
7
  6
BYLAYER
 70
0
 71
3
 72
9
 73
5
 74
0
 42
0.0000001
 43
0.0000001
 44
0.0000000001
 40
0.0
 40
0.0
 40
0.0
 40
0.0
 40
0.5255286616
 40
1.0
 40
1.0
 40
1.0
 40
1.0
 10
281.7513847302
 20
721.7135115477
 30
0.0
 10
281.8503989072
 20
721.7150269978
 30
0.0
 10
282.0390023815
 20
721.7376959459
 30
0.0
 10
282.2184447729
 20
721.803928042
 30
0.0
 10
282.2958718919
 20
721.8486303431
 30
0.0
  0
SPLINE
  5
505
100
AcDbEntity
  8
0
100
AcDbSpline
 62
7
  6
BYLAYER
 70
0
 71
3
 72
9
 73
5
 74
0
 42
0.0000001
 43
0.0000001
 44
0.0000000001
 40
0.0
 40
0.0
 40
0.0
 40
0.0
 40
0.4777615188
 40
1.0
 40
1.0
 40
1.0
 40
1.0
 10
281.1952624338
 20
721.8317850916
 30
0.0
 10
281.2762054186
 20
721.7897620408
 30
0.0
 10
281.4600419291
 20
721.7292579642
 30
0.0
 10
281.6517046082
 20
721.7119859051
 30
0.0
 10
281.7513847302
 20
721.7135115477
 30
0.0
  0
LINE
  5
506
100
AcDbEntity
  8
0
100
AcDbLine
 62
7
  6
BYLAYER
 10
271.1775324339
 20
727.4795895564
 11
271.2488129413
 21
727.432207042
  0
SPLINE
  5
507
100
AcDbEntity
  8
0
100
AcDbSpline
 62
7
  6
BYLAYER
 70
0
 71
3
 72
10
 73
6
 74
0
 42
0.0000001
 43
0.0000001
 44
0.0000000001
 40
0.0
 40
0.0
 40
0.0
 40
0.0
 40
0.542116158
 40
0.777657708
 40
1.0
 40
1.0
 40
1.0
 40
1.0
 10
271.1792124548
 20
725.0289658816
 30
0.0
 10
271.1229053576
 20
725.0663701934
 30
0.0
 10
271.0477769681
 20
725.1335972613
 30
0.0
 10
270.992251094
 20
725.2467786585
 30
0.0
 10
270.9830500402
 20
725.3042224155
 30
0.0
 10
270.9830373452
 20
725.3319471522
 30
0.0
  0
SPLINE
  5
508
100
AcDbEntity
  8
0
100
AcDbSpline
 62
7
  6
BYLAYER
 70
0
 71
3
 72
11
 73
7
 74
0
 42
0.0000001
 43
0.0000001
 44
0.0000000001
 40
0.0
 40
0.0
 40
0.0
 40
0.0
 40
0.2899098314
 40
0.5492002083
 40
0.7823348475
 40
1.0
 40
1.0
 40
1.0
 40
1.0
 10
273.2506023527
 20
731.9355284831
 30
0.0
 10
273.393599455
 20
731.853286918
 30
0.0
 10
273.6530034208
 20
731.6753482841
 30
0.0
 10
273.9629705997
 20
731.3503512448
 30
0.0
 10
274.1592480096
 20
730.9908414453
 30
0.0
 10
274.2050961781
 20
730.7325953553
 30
0.0
 10
274.2050970713
 20
730.6087428013
 30
0.0
  0
SPLINE
  5
509
100
AcDbEntity
  8
0
100
AcDbSpline
 62
7
  6
BYLAYER
 70
0
 71
3
 72
9
 73
5
 74
0
 42
0.0000001
 43
0.0000001
 44
0.0000000001
 40
0.0
 40
0.0
 40
0.0
 40
0.0
 40
0.2095474416
 40
1.0
 40
1.0
 40
1.0
 40
1.0
 10
285.8244872794
 20
80.2258298492
 30
0.0
 10
285.8244472473
 20
80.2485259448
 30
0.0
 10
285.7972559979
 20
80.3576378589
 30
0.0
 10
285.6872885676
 20
80.420639387
 30
0.0
 10
285.6069756643
 20
80.4502976236
 30
0.0
  0
SPLINE
  5
50A
100
AcDbEntity
  8
0
100
AcDbSpline
 62
7
  6
BYLAYER
 70
0
 71
3
 72
8
 73
4
 74
0
 42
0.0000001
 43
0.0000001
 44
0.0000000001
 40
0.0
 40
0.0
 40
0.0
 40
0.0
 40
1.0
 40
1.0
 40
1.0
 40
1.0
 10
267.8713494371
 20
90.4460772443
 30
0.0
 10
267.7804484439
 20
90.5989228248
 30
0.0
 10
267.7194999837
 20
90.776784797
 30
0.0
 10
267.7091248188
 20
90.9543154083
 30
0.0
  0
SPLINE
  5
50B
100
AcDbEntity
  8
0
100
AcDbSpline
 62
7
  6
BYLAYER
 70
0
 71
3
 72
8
 73
4
 74
0
 42
0.0000001
 43
0.0000001
 44
0.0000000001
 40
0.0
 40
0.0
 40
0.0
 40
0.0
 40
1.0
 40
1.0
 40
1.0
 40
1.0
 10
268.5055382517
 20
89.7076776813
 30
0.0
 10
268.2761598854
 20
89.9371455326
 30
0.0
 10
268.0620817095
 20
90.183606046
 30
0.0
 10
267.8713494371
 20
90.4460772443
 30
0.0
  0
SPLINE
  5
50C
100
AcDbEntity
  8
0
100
AcDbSpline
 62
7
  6
BYLAYER
 70
0
 71
3
 72
8
 73
4
 74
0
 42
0.0000001
 43
0.0000001
 44
0.0000000001
 40
0.0
 40
0.0
 40
0.0
 40
0.0
 40
1.0
 40
1.0
 40
1.0
 40
1.0
 10
269.2956427701
 20
89.0212282669
 30
0.0
 10
269.0178846774
 20
89.2323448556
 30
0.0
 10
268.7521881008
 20
89.4609316094
 30
0.0
 10
268.5055382517
 20
89.7076776813
 30
0.0
  0
SPLINE
  5
50D
100
AcDbEntity
  8
0
100
AcDbSpline
 62
7
  6
BYLAYER
 70
0
 71
3
 72
8
 73
4
 74
0
 42
0.0000001
 43
0.0000001
 44
0.0000000001
 40
0.0
 40
0.0
 40
0.0
 40
0.0
 40
1.0
 40
1.0
 40
1.0
 40
1.0
 10
269.4139464809
 20
88.9713019671
 30
0.0
 10
269.3770974983
 20
88.9786785472
 30
0.0
 10
269.3219385238
 20
88.9859631099
 30
0.0
 10
269.3135504161
 20
89.0225950782
 30
0.0
  0
SPLINE
  5
50E
100
AcDbEntity
  8
0
100
AcDbSpline
 62
7
  6
BYLAYER
 70
0
 71
3
 72
8
 73
4
 74
0
 42
0.0000001
 43
0.0000001
 44
0.0000000001
 40
0.0
 40
0.0
 40
0.0
 40
0.0
 40
1.0
 40
1.0
 40
1.0
 40
1.0
 10
269.5603895734
 20
88.9682301682
 30
0.0
 10
269.516471209
 20
88.9614542597
 30
0.0
 10
269.4647111858
 20
88.9540120608
 30
0.0
 10
269.4274510041
 20
88.978228058
 30
0.0
  0
SPLINE
  5
50F
100
AcDbEntity
  8
0
100
AcDbSpline
 62
7
  6
BYLAYER
 70
0
 71
3
 72
8
 73
4
 74
0
 42
0.0000001
 43
0.0000001
 44
0.0000000001
 40
0.0
 40
0.0
 40
0.0
 40
0.0
 40
1.0
 40
1.0
 40
1.0
 40
1.0
 10
270.0234119507
 20
88.8827596679
 30
0.0
 10
269.9410414602
 20
88.9402914177
 30
0.0
 10
269.8365455515
 20
88.9670388467
 30
0.0
 10
269.7363675504
 20
88.9747309226
 30
0.0
  0
SPLINE
  5
510
100
AcDbEntity
  8
0
100
AcDbSpline
 62
7
  6
BYLAYER
 70
0
 71
3
 72
8
 73
4
 74
0
 42
0.0000001
 43
0.0000001
 44
0.0000000001
 40
0.0
 40
0.0
 40
0.0
 40
0.0
 40
1.0
 40
1.0
 40
1.0
 40
1.0
 10
269.7363675504
 20
88.9747309226
 30
0.0
 10
269.6778404928
 20
88.9792248689
 30
0.0
 10
269.6184025113
 20
88.9771806463
 30
0.0
 10
269.5603895734
 20
88.9682301682
 30
0.0
  0
SPLINE
  5
511
100
AcDbEntity
  8
0
100
AcDbSpline
 62
7
  6
BYLAYER
 70
0
 71
3
 72
8
 73
4
 74
0
 42
0.0000001
 43
0.0000001
 44
0.0000000001
 40
0.0
 40
0.0
 40
0.0
 40
0.0
 40
1.0
 40
1.0
 40
1.0
 40
1.0
 10
270.1197204434
 20
88.445520009
 30
0.0
 10
270.0960657747
 20
88.4609174586
 30
0.0
 10
270.0598776729
 20
88.4943772487
 30
0.0
 10
270.0756209401
 20
88.5178031819
 30
0.0
  0
SPLINE
  5
512
100
AcDbEntity
  8
0
100
AcDbSpline
 62
7
  6
BYLAYER
 70
0
 71
3
 72
9
 73
5
 74
0
 42
0.0000001
 43
0.0000001
 44
0.0000000001
 40
0.0
 40
0.0
 40
0.0
 40
0.0
 40
0.2542522323
 40
1.0
 40
1.0
 40
1.0
 40
1.0
 10
277.1623161613
 20
84.2505599689
 30
0.0
 10
276.5521662824
 20
84.5829779437
 30
0.0
 10
274.1646614636
 20
85.9127642603
 30
0.0
 10
271.8273709577
 20
87.3331495324
 30
0.0
 10
270.1197204434
 20
88.445520009
 30
0.0
  0
SPLINE
  5
513
100
AcDbEntity
  8
0
100
AcDbSpline
 62
7
  6
BYLAYER
 70
0
 71
3
 72
9
 73
5
 74
0
 42
0.0000001
 43
0.0000001
 44
0.0000000001
 40
0.0
 40
0.0
 40
0.0
 40
0.0
 40
0.2538493784
 40
1.0
 40
1.0
 40
1.0
 40
1.0
 10
284.8240537695
 20
80.4343986872
 30
0.0
 10
284.1646841744
 20
80.7342877002
 30
0.0
 10
281.5774293085
 20
81.9379632296
 30
0.0
 10
279.0319926271
 20
83.2319347332
 30
0.0
 10
277.1623161613
 20
84.2505599689
 30
0.0
  0
SPLINE
  5
514
100
AcDbEntity
  8
0
100
AcDbSpline
 62
7
  6
BYLAYER
 70
0
 71
3
 72
8
 73
4
 74
0
 42
0.0000001
 43
0.0000001
 44
0.0000000001
 40
0.0
 40
0.0
 40
0.0
 40
0.0
 40
1.0
 40
1.0
 40
1.0
 40
1.0
 10
284.9682104554
 20
80.4093010985
 30
0.0
 10
284.9246791635
 20
80.4089742689
 30
0.0
 10
284.8691895659
 20
80.4059565457
 30
0.0
 10
284.8410809824
 20
80.4391979013
 30
0.0
  0
SPLINE
  5
515
100
AcDbEntity
  8
0
100
AcDbSpline
 62
7
  6
BYLAYER
 70
0
 71
3
 72
8
 73
4
 74
0
 42
0.0000001
 43
0.0000001
 44
0.0000000001
 40
0.0
 40
0.0
 40
0.0
 40
0.0
 40
1.0
 40
1.0
 40
1.0
 40
1.0
 10
285.1111879662
 20
80.4365544688
 30
0.0
 10
285.0695569156
 20
80.4195632064
 30
0.0
 10
285.0202708389
 20
80.4051855691
 30
0.0
 10
284.9774519083
 20
80.4189109672
 30
0.0
  0
SPLINE
  5
516
100
AcDbEntity
  8
0
100
AcDbSpline
 62
7
  6
BYLAYER
 70
0
 71
3
 72
8
 73
4
 74
0
 42
0.0000001
 43
0.0000001
 44
0.0000000001
 40
0.0
 40
0.0
 40
0.0
 40
0.0
 40
1.0
 40
1.0
 40
1.0
 40
1.0
 10
285.6069756643
 20
80.4502976236
 30
0.0
 10
285.5012460868
 20
80.4893418207
 30
0.0
 10
285.381726291
 20
80.4936346887
 30
0.0
 10
285.2700323999
 20
80.4785460315
 30
0.0
  0
SPLINE
  5
517
100
AcDbEntity
  8
0
100
AcDbSpline
 62
7
  6
BYLAYER
 70
0
 71
3
 72
8
 73
4
 74
0
 42
0.0000001
 43
0.0000001
 44
0.0000000001
 40
0.0
 40
0.0
 40
0.0
 40
0.0
 40
1.0
 40
1.0
 40
1.0
 40
1.0
 10
285.2700323999
 20
80.4785460315
 30
0.0
 10
285.2157583609
 20
80.4712141859
 30
0.0
 10
285.1616649922
 20
80.4578029304
 30
0.0
 10
285.1111879662
 20
80.4365544688
 30
0.0
  0
SPLINE
  5
518
100
AcDbEntity
  8
0
100
AcDbSpline
 62
7
  6
BYLAYER
 70
0
 71
3
 72
9
 73
5
 74
0
 42
0.0000001
 43
0.0000001
 44
0.0000000001
 40
0.0
 40
0.0
 40
0.0
 40
0.0
 40
0.7081864073
 40
1.0
 40
1.0
 40
1.0
 40
1.0
 10
285.8332229798
 20
80.0898661748
 30
0.0
 10
285.8202725679
 20
80.1066225427
 30
0.0
 10
285.7986036276
 20
80.1413093818
 30
0.0
 10
285.8229962778
 20
80.1645008442
 30
0.0
 10
285.8301720337
 20
80.1694665403
 30
0.0
  0
SPLINE
  5
519
100
AcDbEntity
  8
0
100
AcDbSpline
 62
7
  6
BYLAYER
 70
0
 71
3
 72
8
 73
4
 74
0
 42
0.0000001
 43
0.0000001
 44
0.0000000001
 40
0.0
 40
0.0
 40
0.0
 40
0.0
 40
1.0
 40
1.0
 40
1.0
 40
1.0
 10
285.9331356746
 20
80.0248329483
 30
0.0
 10
285.9006055667
 20
80.0360737677
 30
0.0
 10
285.846291833
 20
80.0548665699
 30
0.0
 10
285.8520797022
 20
80.0887939115
 30
0.0
  0
SPLINE
  5
51A
100
AcDbEntity
  8
0
100
AcDbSpline
 62
7
  6
BYLAYER
 70
0
 71
3
 72
9
 73
5
 74
0
 42
0.0000001
 43
0.0000001
 44
0.0000000001
 40
0.0
 40
0.0
 40
0.0
 40
0.0
 40
0.2576570294
 40
1.0
 40
1.0
 40
1.0
 40
1.0
 10
287.5354245705
 20
79.5916129248
 30
0.0
 10
287.3948661733
 20
79.6160905791
 30
0.0
 10
286.8515629502
 20
79.7230795754
 30
0.0
 10
286.3172953987
 20
79.8785697205
 30
0.0
 10
285.9331356746
 20
80.0248329483
 30
0.0
  0
SPLINE
  5
51B
100
AcDbEntity
  8
0
100
AcDbSpline
 62
7
  6
BYLAYER
 70
0
 71
3
 72
9
 73
5
 74
0
 42
0.0000001
 43
0.0000001
 44
0.0000000001
 40
0.0
 40
0.0
 40
0.0
 40
0.0
 40
0.2425871814
 40
1.0
 40
1.0
 40
1.0
 40
1.0
 10
290.445973532
 20
79.6357149671
 30
0.0
 10
290.3546764047
 20
79.6084288138
 30
0.0
 10
289.9746455594
 20
79.5084782626
 30
0.0
 10
289.5825153356
 20
79.456150339
 30
0.0
 10
289.2853893963
 20
79.441052046
 30
0.0
  0
SPLINE
  5
51C
100
AcDbEntity
  8
0
100
AcDbSpline
 62
7
  6
BYLAYER
 70
0
 71
3
 72
8
 73
4
 74
0
 42
0.0000001
 43
0.0000001
 44
0.0000000001
 40
0.0
 40
0.0
 40
0.0
 40
0.0
 40
1.0
 40
1.0
 40
1.0
 40
1.0
 10
291.391299433
 20
80.0704495506
 30
0.0
 10
291.3009499174
 20
80.008923069
 30
0.0
 10
291.2065942097
 20
79.9530263538
 30
0.0
 10
291.1097992182
 20
79.9022398152
 30
0.0
  0
SPLINE
  5
51D
100
AcDbEntity
  8
0
100
AcDbSpline
 62
7
  6
BYLAYER
 70
0
 71
3
 72
8
 73
4
 74
0
 42
0.0000001
 43
0.0000001
 44
0.0000000001
 40
0.0
 40
0.0
 40
0.0
 40
0.0
 40
1.0
 40
1.0
 40
1.0
 40
1.0
 10
291.1097992182
 20
79.9022398152
 30
0.0
 10
290.898653693
 20
79.7914556702
 30
0.0
 10
290.6744323056
 20
79.7039948934
 30
0.0
 10
290.445973532
 20
79.6357149671
 30
0.0
  0
SPLINE
  5
51E
100
AcDbEntity
  8
0
100
AcDbSpline
 62
7
  6
BYLAYER
 70
0
 71
3
 72
8
 73
4
 74
0
 42
0.0000001
 43
0.0000001
 44
0.0000000001
 40
0.0
 40
0.0
 40
0.0
 40
0.0
 40
1.0
 40
1.0
 40
1.0
 40
1.0
 10
291.5779920311
 20
80.4163112699
 30
0.0
 10
291.5858194625
 20
80.3325491577
 30
0.0
 10
291.5523376224
 20
80.2425083633
 30
0.0
 10
291.5007808319
 20
80.1760308673
 30
0.0
  0
SPLINE
  5
51F
100
AcDbEntity
  8
0
100
AcDbSpline
 62
7
  6
BYLAYER
 70
0
 71
3
 72
8
 73
4
 74
0
 42
0.0000001
 43
0.0000001
 44
0.0000000001
 40
0.0
 40
0.0
 40
0.0
 40
0.0
 40
1.0
 40
1.0
 40
1.0
 40
1.0
 10
291.5007808319
 20
80.1760308673
 30
0.0
 10
291.4697101703
 20
80.1359682537
 30
0.0
 10
291.4319208268
 20
80.10078602
 30
0.0
 10
291.391299433
 20
80.0704495506
 30
0.0
  0
SPLINE
  5
520
100
AcDbEntity
  8
0
100
AcDbSpline
 62
7
  6
BYLAYER
 70
0
 71
3
 72
9
 73
5
 74
0
 42
0.0000001
 43
0.0000001
 44
0.0000000001
 40
0.0
 40
0.0
 40
0.0
 40
0.0
 40
0.2349183155
 40
1.0
 40
1.0
 40
1.0
 40
1.0
 10
305.2303535598
 20
88.0603834826
 30
0.0
 10
305.1866226384
 20
88.040864723
 30
0.0
 10
304.9946773295
 20
87.9710079099
 30
0.0
 10
304.7871863847
 20
87.9477401273
 30
0.0
 10
304.63129648
 20
87.9525951217
 30
0.0
  0
SPLINE
  5
521
100
AcDbEntity
  8
0
100
AcDbSpline
 62
7
  6
BYLAYER
 70
0
 71
3
 72
9
 73
5
 74
0
 42
0.0000001
 43
0.0000001
 44
0.0000000001
 40
0.0
 40
0.0
 40
0.0
 40
0.0
 40
0.2306319194
 40
1.0
 40
1.0
 40
1.0
 40
1.0
 10
305.9833388392
 20
88.6061634634
 30
0.0
 10
305.9354392324
 20
88.5527412434
 30
0.0
 10
305.7135747712
 20
88.3338037602
 30
0.0
 10
305.4453381343
 20
88.1656147272
 30
0.0
 10
305.2303535598
 20
88.0603834826
 30
0.0
  0
SPLINE
  5
522
100
AcDbEntity
  8
0
100
AcDbSpline
 62
7
  6
BYLAYER
 70
0
 71
3
 72
9
 73
5
 74
0
 42
0.0000001
 43
0.0000001
 44
0.0000000001
 40
0.0
 40
0.0
 40
0.0
 40
0.0
 40
0.2362408478
 40
1.0
 40
1.0
 40
1.0
 40
1.0
 10
306.3205000651
 20
89.2762190683
 30
0.0
 10
306.3115243951
 20
89.2173364202
 30
0.0
 10
306.25264234
 20
88.9711369119
 30
0.0
 10
306.1118901245
 20
88.7495361445
 30
0.0
 10
305.9833388392
 20
88.6061634634
 30
0.0
  0
SPLINE
  5
523
100
AcDbEntity
  8
0
100
AcDbSpline
 62
7
  6
BYLAYER
 70
0
 71
3
 72
8
 73
4
 74
0
 42
0.0000001
 43
0.0000001
 44
0.0000000001
 40
0.0
 40
0.0
 40
0.0
 40
0.0
 40
1.0
 40
1.0
 40
1.0
 40
1.0
 10
270.081686194
 20
723.434759351
 30
0.0
 10
270.0652174013
 20
723.4150970985
 30
0.0
 10
270.0529086042
 20
723.3738868763
 30
0.0
 10
270.0732600649
 20
723.3582777971
 30
0.0
  0
SPLINE
  5
524
100
AcDbEntity
  8
0
100
AcDbSpline
 62
7
  6
BYLAYER
 70
0
 71
3
 72
8
 73
4
 74
0
 42
0.0000001
 43
0.0000001
 44
0.0000000001
 40
0.0
 40
0.0
 40
0.0
 40
0.0
 40
1.0
 40
1.0
 40
1.0
 40
1.0
 10
305.3867701324
 20
722.9729953669
 30
0.0
 10
305.522968614
 20
723.049391547
 30
0.0
 10
305.6539790959
 20
723.1367416612
 30
0.0
 10
305.7741256781
 20
723.2364973705
 30
0.0
  0
SPLINE
  5
525
100
AcDbEntity
  8
0
100
AcDbSpline
 62
7
  6
BYLAYER
 70
0
 71
3
 72
8
 73
4
 74
0
 42
0.0000001
 43
0.0000001
 44
0.0000000001
 40
0.0
 40
0.0
 40
0.0
 40
0.0
 40
1.0
 40
1.0
 40
1.0
 40
1.0
 10
305.0474796521
 20
722.8278037101
 30
0.0
 10
305.1099233826
 20
722.8439464068
 30
0.0
 10
305.1714573167
 20
722.8647251861
 30
0.0
 10
305.2303535598
 20
722.8910128008
 30
0.0
  0
SPLINE
  5
526
100
AcDbEntity
  8
0
100
AcDbSpline
 62
7
  6
BYLAYER
 70
0
 71
3
 72
8
 73
4
 74
0
 42
0.0000001
 43
0.0000001
 44
0.0000000001
 40
0.0
 40
0.0
 40
0.0
 40
0.0
 40
1.0
 40
1.0
 40
1.0
 40
1.0
 10
304.0557993837
 20
722.9275928091
 30
0.0
 10
304.10986416
 20
722.8975731425
 30
0.0
 10
304.1672386983
 20
722.8731588824
 30
0.0
 10
304.2258346258
 20
722.8533928081
 30
0.0
  0
SPLINE
  5
527
100
AcDbEntity
  8
0
100
AcDbSpline
 62
7
  6
BYLAYER
 70
0
 71
3
 72
8
 73
4
 74
0
 42
0.0000001
 43
0.0000001
 44
0.0000000001
 40
0.0
 40
0.0
 40
0.0
 40
0.0
 40
1.0
 40
1.0
 40
1.0
 40
1.0
 10
291.5343985145
 20
715.0568407002
 30
0.0
 10
291.547900525
 20
715.0805857317
 30
0.0
 10
291.5589832722
 20
715.1059546908
 30
0.0
 10
291.5666598142
 20
715.1321692194
 30
0.0
  0
SPLINE
  5
528
100
AcDbEntity
  8
0
100
AcDbSpline
 62
7
  6
BYLAYER
 70
0
 71
3
 72
8
 73
4
 74
0
 42
0.0000001
 43
0.0000001
 44
0.0000000001
 40
0.0
 40
0.0
 40
0.0
 40
0.0
 40
1.0
 40
1.0
 40
1.0
 40
1.0
 10
291.5666598142
 20
715.1321692194
 30
0.0
 10
291.5774636302
 20
715.1690630374
 30
0.0
 10
291.581568897
 20
715.2086641949
 30
0.0
 10
291.5779920311
 20
715.2469405881
 30
0.0
  0
SPLINE
  5
529
100
AcDbEntity
  8
0
100
AcDbSpline
 62
7
  6
BYLAYER
 70
0
 71
3
 72
8
 73
4
 74
0
 42
0.0000001
 43
0.0000001
 44
0.0000000001
 40
0.0
 40
0.0
 40
0.0
 40
0.0
 40
1.0
 40
1.0
 40
1.0
 40
1.0
 10
290.6330535749
 20
714.5270608366
 30
0.0
 10
290.7963656453
 20
714.5844154571
 30
0.0
 10
290.9565250011
 20
714.6524489916
 30
0.0
 10
291.1097992182
 20
714.7328691334
 30
0.0
  0
SPLINE
  5
52A
100
AcDbEntity
  8
0
100
AcDbSpline
 62
7
  6
BYLAYER
 70
0
 71
3
 72
9
 73
5
 74
0
 42
0.0000001
 43
0.0000001
 44
0.0000000001
 40
0.0
 40
0.0
 40
0.0
 40
0.0
 40
0.6802259099
 40
1.0
 40
1.0
 40
1.0
 40
1.0
 10
285.8330583952
 20
714.9206089322
 30
0.0
 10
285.8492879955
 20
714.8996096654
 30
0.0
 10
285.8809572139
 20
714.8707686649
 30
0.0
 10
285.9207593585
 20
714.867105955
 30
0.0
 10
285.9332357349
 20
714.867070107
 30
0.0
  0
SPLINE
  5
52B
100
AcDbEntity
  8
0
100
AcDbSpline
 62
7
  6
BYLAYER
 70
0
 71
3
 72
9
 73
5
 74
0
 42
0.0000001
 43
0.0000001
 44
0.0000000001
 40
0.0
 40
0.0
 40
0.0
 40
0.0
 40
0.6694844084
 40
1.0
 40
1.0
 40
1.0
 40
1.0
 10
285.8150796805
 20
715.0042107513
 30
0.0
 10
285.8090927466
 20
714.985498627
 30
0.0
 10
285.8069179528
 20
714.9478067694
 30
0.0
 10
285.8354172732
 20
714.9334087985
 30
0.0
 10
285.8443742298
 20
714.9296874775
 30
0.0
  0
SPLINE
  5
52C
100
AcDbEntity
  8
0
100
AcDbSpline
 62
7
  6
BYLAYER
 70
0
 71
3
 72
8
 73
4
 74
0
 42
0.0000001
 43
0.0000001
 44
0.0000000001
 40
0.0
 40
0.0
 40
0.0
 40
0.0
 40
1.0
 40
1.0
 40
1.0
 40
1.0
 10
285.6168384499
 20
715.2752893708
 30
0.0
 10
285.687420109
 20
715.2492247229
 30
0.0
 10
285.7585864062
 20
715.2058533088
 30
0.0
 10
285.7995383002
 20
715.142733749
 30
0.0
  0
SPLINE
  5
52D
100
AcDbEntity
  8
0
100
AcDbSpline
 62
7
  6
BYLAYER
 70
0
 71
3
 72
8
 73
4
 74
0
 42
0.0000001
 43
0.0000001
 44
0.0000000001
 40
0.0
 40
0.0
 40
0.0
 40
0.0
 40
1.0
 40
1.0
 40
1.0
 40
1.0
 10
285.7995383002
 20
715.142733749
 30
0.0
 10
285.8158570569
 20
715.1175814876
 30
0.0
 10
285.8257593644
 20
715.0864255898
 30
0.0
 10
285.824959575
 20
715.056453963
 30
0.0
  0
SPLINE
  5
52E
100
AcDbEntity
  8
0
100
AcDbSpline
 62
7
  6
BYLAYER
 70
0
 71
3
 72
8
 73
4
 74
0
 42
0.0000001
 43
0.0000001
 44
0.0000000001
 40
0.0
 40
0.0
 40
0.0
 40
0.0
 40
1.0
 40
1.0
 40
1.0
 40
1.0
 10
285.1074558
 20
715.2655246329
 30
0.0
 10
285.2002397188
 20
715.304582313
 30
0.0
 10
285.3048171462
 20
715.3201345044
 30
0.0
 10
285.4053623375
 20
715.3151322587
 30
0.0
  0
SPLINE
  5
52F
100
AcDbEntity
  8
0
100
AcDbSpline
 62
7
  6
BYLAYER
 70
0
 71
3
 72
8
 73
4
 74
0
 42
0.0000001
 43
0.0000001
 44
0.0000000001
 40
0.0
 40
0.0
 40
0.0
 40
0.0
 40
1.0
 40
1.0
 40
1.0
 40
1.0
 10
285.4053623375
 20
715.3151322587
 30
0.0
 10
285.4770059463
 20
715.311567902
 30
0.0
 10
285.5495478625
 20
715.30013868
 30
0.0
 10
285.6168384499
 20
715.2752893708
 30
0.0
  0
SPLINE
  5
530
100
AcDbEntity
  8
0
100
AcDbSpline
 62
7
  6
BYLAYER
 70
0
 71
3
 72
8
 73
4
 74
0
 42
0.0000001
 43
0.0000001
 44
0.0000000001
 40
0.0
 40
0.0
 40
0.0
 40
0.0
 40
1.0
 40
1.0
 40
1.0
 40
1.0
 10
284.9683639585
 20
715.2398901927
 30
0.0
 10
285.0107704612
 20
715.2402085775
 30
0.0
 10
285.0643147079
 20
715.2378248221
 30
0.0
 10
285.0919812576
 20
715.2699647484
 30
0.0
  0
SPLINE
  5
531
100
AcDbEntity
  8
0
100
AcDbSpline
 62
7
  6
BYLAYER
 70
0
 71
3
 72
8
 73
4
 74
0
 42
0.0000001
 43
0.0000001
 44
0.0000000001
 40
0.0
 40
0.0
 40
0.0
 40
0.0
 40
1.0
 40
1.0
 40
1.0
 40
1.0
 10
284.8240537695
 20
715.2650280055
 30
0.0
 10
284.8661853137
 20
715.2484308783
 30
0.0
 10
284.9160449138
 20
715.2348282748
 30
0.0
 10
284.9589794266
 20
715.2492213028
 30
0.0
  0
SPLINE
  5
532
100
AcDbEntity
  8
0
100
AcDbSpline
 62
7
  6
BYLAYER
 70
0
 71
3
 72
9
 73
5
 74
0
 42
0.0000001
 43
0.0000001
 44
0.0000000001
 40
0.0
 40
0.0
 40
0.0
 40
0.0
 40
0.6653989553
 40
1.0
 40
1.0
 40
1.0
 40
1.0
 10
270.0591143096
 20
723.352130124
 30
0.0
 10
270.0642148521
 20
723.3308598957
 30
0.0
 10
270.0819274312
 20
723.2971629876
 30
0.0
 10
270.1148040242
 20
723.2879790713
 30
0.0
 10
270.1255840552
 20
723.2857946606
 30
0.0
  0
SPLINE
  5
533
100
AcDbEntity
  8
0
100
AcDbSpline
 62
7
  6
BYLAYER
 70
0
 71
3
 72
8
 73
4
 74
0
 42
0.0000001
 43
0.0000001
 44
0.0000000001
 40
0.0
 40
0.0
 40
0.0
 40
0.0
 40
1.0
 40
1.0
 40
1.0
 40
1.0
 10
269.5603895733
 20
723.7988594864
 30
0.0
 10
269.6579596285
 20
723.8139130016
 30
0.0
 10
269.7605491645
 20
723.8101620632
 30
0.0
 10
269.8562863163
 20
723.786059745
 30
0.0
  0
SPLINE
  5
534
100
AcDbEntity
  8
0
100
AcDbSpline
 62
7
  6
BYLAYER
 70
0
 71
3
 72
8
 73
4
 74
0
 42
0.0000001
 43
0.0000001
 44
0.0000000001
 40
0.0
 40
0.0
 40
0.0
 40
0.0
 40
1.0
 40
1.0
 40
1.0
 40
1.0
 10
269.8562863163
 20
723.786059745
 30
0.0
 10
269.9151953631
 20
723.7712290909
 30
0.0
 10
269.9736096778
 20
723.7481734324
 30
0.0
 10
270.0234119507
 20
723.7133889861
 30
0.0
  0
SPLINE
  5
535
100
AcDbEntity
  8
0
100
AcDbSpline
 62
7
  6
BYLAYER
 70
0
 71
3
 72
8
 73
4
 74
0
 42
0.0000001
 43
0.0000001
 44
0.0000000001
 40
0.0
 40
0.0
 40
0.0
 40
0.0
 40
1.0
 40
1.0
 40
1.0
 40
1.0
 10
269.4139464809
 20
723.8019312853
 30
0.0
 10
269.4577171062
 20
723.7931691024
 30
0.0
 10
269.5088747351
 20
723.7844664632
 30
0.0
 10
269.5477912242
 20
723.8063331127
 30
0.0
  0
SPLINE
  5
536
100
AcDbEntity
  8
0
100
AcDbSpline
 62
7
  6
BYLAYER
 70
0
 71
3
 72
8
 73
4
 74
0
 42
0.0000001
 43
0.0000001
 44
0.0000000001
 40
0.0
 40
0.0
 40
0.0
 40
0.0
 40
1.0
 40
1.0
 40
1.0
 40
1.0
 10
269.2956427701
 20
723.8518575851
 30
0.0
 10
269.3277712225
 20
723.8270552797
 30
0.0
 10
269.3703934753
 20
723.8080293109
 30
0.0
 10
269.4107669824
 20
723.812197252
 30
0.0
  0
SPLINE
  5
537
100
AcDbEntity
  8
0
100
AcDbSpline
 62
7
  6
BYLAYER
 70
0
 71
3
 72
8
 73
4
 74
0
 42
0.0000001
 43
0.0000001
 44
0.0000000001
 40
0.0
 40
0.0
 40
0.0
 40
0.0
 40
1.0
 40
1.0
 40
1.0
 40
1.0
 10
305.9833388392
 20
723.4367927816
 30
0.0
 10
306.0431767214
 20
723.5035297076
 30
0.0
 10
306.0981648176
 20
723.5751398616
 30
0.0
 10
306.1458259302
 20
723.6510530211
 30
0.0
  0
ENDSEC
  0
SECTION
  2
OBJECTS
  0
DICTIONARY
  5
C
100
AcDbDictionary
280
0
281
1
  3
ACAD_GROUP
350
D
  3
ACAD_MLINESTYLE
350
17
  3
ACAD_LAYOUT
350
1A
  3
ACAD_PLOTSETTINGS
350
19
  3
ACAD_PLOTSTYLENAME
350
E
  0
DICTIONARY
  5
D
102
{ACAD_REACTORS
330
C
102
}
100
AcDbDictionary
280
0
281
1
  0
ACDBDICTIONARYWDFLT
  5
E
102
{ACAD_REACTORS
330
C
102
}
100
AcDbDictionary
281
1
  3
Normal
350
F
100
AcDbDictionaryWithDefault
340
F
  0
DICTIONARY
  5
17
102
{ACAD_REACTORS
330
C
102
}
100
AcDbDictionary
280
0
281
1
  3
Standard
350
18
  0
DICTIONARY
  5
19
102
{ACAD_REACTORS
330
C
102
}
100
AcDbDictionary
281
1
  0
DICTIONARY
  5
1A
102
{ACAD_REACTORS
330
C
102
}
100
AcDbDictionary
281
1
  3
Model
350
538
  3
Layout1
350
539
  0
ACDBPLACEHOLDER
  5
F
102
{ACAD_REACTORS
330
E
102
}
  0
MLINESTYLE
  5
18
102
{ACAD_REACTORS
330
17
102
}
100
AcDbMlineStyle
  2
STANDARD
 70
0
  3

 62
256
 51
90.0
 52
90.0
 71
2
 49
0.5
 62
256
  6
BYLAYER
 49
-0.5
 62
256
  6
BYLAYER
  0
LAYOUT
  5
538
102
{ACAD_REACTORS
330
1A
102
}
100
AcDbPlotSettings
  1

  2
none_device
  4

  6

 40
0.0
 41
0.0
 42
0.0
 43
0.0
 44
210.0
 45
297.0
 46
0.0
 47
0.0
 48
0.0
 49
0.0
140
0.0
141
0.0
142
1.0
143
1.0
 70
1024
 72
1
 73
0
 74
0
  7

 75
0
147
1.0
148
0.0
149
0.0
100
AcDbLayout
  1
Model
 70
0
 71
0
 10
0.0
 20
0.0
 11
210.0
 21
297.0
 12
0.0
 22
0.0
 32
0.0
 14
0.0
 24
0.0
 34
0.0
 15
0.0
 25
0.0
 35
0.0
146
0.0
 13
0.0
 23
0.0
 33
0.0
 16
1.0
 26
0.0
 36
0.0
 17
0.0
 27
1.0
 37
0.0
 76
0
330
210
345
0
346
0
  0
LAYOUT
  5
539
102
{ACAD_REACTORS
330
1A
102
}
100
AcDbPlotSettings
  1

  2
none_device
  4

  6

 40
0.0
 41
0.0
 42
0.0
 43
0.0
 44
210.0
 45
297.0
 46
0.0
 47
0.0
 48
0.0
 49
0.0
140
0.0
141
0.0
142
1.0
143
1.0
 70
0
 72
1
 73
0
 74
0
  7

 75
0
147
1.0
148
0.0
149
0.0
100
AcDbLayout
  1
Layout1
 70
0
 71
1
 10
0.0
 20
0.0
 11
210.0
 21
297.0
 12
0.0
 22
0.0
 32
0.0
 14
0.0
 24
0.0
 34
0.0
 15
0.0
 25
0.0
 35
0.0
146
0.0
 13
0.0
 23
0.0
 33
0.0
 16
1.0
 26
0.0
 36
0.0
 17
0.0
 27
1.0
 37
0.0
 76
0
330
211
345
0
346
0
  0
ENDSEC
  0
EOF
