999
DXF file: Y:\001_SCHNEIDER_PARIS\78_2020_429_Grey Project M580\TRAVAIL LUCAS SANTANA G3\CAD3D\2D-Views\BMXNGD0100_2D-Views\BMXNGD0100_2D-TOP.dxf
999
Pro/ENGINEER 2018260 by Parametric Technology Corporation
  0
SECTION
  2
HEADER
  9
$ACADVER
  1
AC1027
  9
$DWGCODEPAGE
  3
ANSI_1252
  9
$EXTMAX
 10
558.8
 20
431.8
 30
0.0
  9
$EXTMIN
 10
0.0
 20
0.0
 30
0.0
  9
$LIMMIN
 10
0.0
 20
0.0
  9
$LIMMAX
 10
558.8
 20
431.8
  9
$VIEWCTR
 10
279.4
 20
215.9
  9
$VIEWSIZE
 40
431.8
  9
$CLAYER
  8
0
  9
$LTSCALE
 40
30.734
  9
$CELTYPE
  6
BYLAYER
  9
$DIMSCALE
 40
1.0
  9
$DIMASZ
 40
3.5
  9
$DIMEXO
 40
1.0
  9
$DIMDLI
 40
21.2344
  9
$DIMEXE
 40
3.0
  9
$DIMCEN
 40
5.0292
  9
$DIMLFAC
 40
1.0
  9
$DIMBLK
  1
_FILLED
  9
$DIMALT
 70
0
  9
$DIMALTF
 40
0.0393700787
  9
$DIMTXT
 40
4.0
  9
$DIMTOL
 70
1
  9
$DIMLIM
 70
0
  9
$DIMTFAC
 40
1.0
  9
$DIMTP
 40
0.0001
  9
$DIMTM
 40
0.0001
  9
$DIMGAP
 40
0.625
  9
$DIMDSEP
 70
46
  9
$AUNITS
 70
0
  9
$PDMODE
 70
0
  9
$PDSIZE
 40
0.01
  9
$HANDSEED
  5
2DB
  9
$TILEMODE
 70
1
  9
$MEASUREMENT
 70
1
  9
$INSUNITS
 70
4
  0
ENDSEC
  0
SECTION
  2
CLASSES
  0
CLASS
  1
ACDBDICTIONARYWDFLT
  2
AcDbDictionaryWithDefault
  3
AutoCAD 2000
 90
0
 91
1
280
0
281
0
  0
CLASS
  1
ACDBPLACEHOLDER
  2
AcDbPlaceHolder
  3
AutoCAD 2000
 90
0
 91
1
280
0
281
0
  0
CLASS
  1
LAYOUT
  2
AcDbLayout
  3
AutoCAD 2000
 90
0
 91
0
280
0
281
0
  0
ENDSEC
  0
SECTION
  2
TABLES
  0
TABLE
  2
VPORT
  5
8
100
AcDbSymbolTable
 70
2
  0
VPORT
  5
1F4
100
AcDbSymbolTableRecord
100
AcDbViewportTableRecord
  2
*ACTIVE
 70
0
 10
0.0
 20
0.0
 11
1.0
 21
1.0
 12
279.4
 22
215.9
 13
0.0
 23
0.0
 14
1.0
 24
1.0
 15
0.0
 25
0.0
 16
0.0
 26
0.0
 36
1.0
 17
0.0
 27
0.0
 37
0.0
 40
431.8
 41
1.2941176471
 42
50.0
 43
0.0
 44
0.0
 50
0.0
 51
0.0
 71
0
 72
100
 73
1
 74
1
 75
0
 76
0
 77
0
 78
0
  0
ENDTAB
  0
TABLE
  2
LTYPE
  5
5
100
AcDbSymbolTable
 70
6
  0
LTYPE
  5
14
100
AcDbSymbolTableRecord
100
AcDbLinetypeTableRecord
  2
BYBLOCK
 70
0
  3

 72
65
 73
0
 40
0.0
  0
LTYPE
  5
15
100
AcDbSymbolTableRecord
100
AcDbLinetypeTableRecord
  2
BYLAYER
 70
0
  3

 72
65
 73
0
 40
0.0
  0
LTYPE
  5
16
100
AcDbSymbolTableRecord
100
AcDbLinetypeTableRecord
  2
CONTINUOUS
 70
64
  3
Solid line
 72
65
 73
0
 40
0.0
  0
LTYPE
  5
1F5
100
AcDbSymbolTableRecord
100
AcDbLinetypeTableRecord
  2
CENTER
 70
64
  3
____ _ ____ _ ____ _ ____ _ ____ _ ____ _ ____
 72
65
 73
4
 40
0.6
 49
0.375
 74
0
 49
-0.075
 74
0
 49
0.075
 74
0
 49
-0.075
 74
0
  0
LTYPE
  5
1F6
100
AcDbSymbolTableRecord
100
AcDbLinetypeTableRecord
  2
HIDDEN
 70
64
  3
- - - - - - - - - - - - - - - - - - - -
 72
65
 73
2
 40
0.2
 49
0.1
 74
0
 49
-0.1
 74
0
  0
LTYPE
  5
1F7
100
AcDbSymbolTableRecord
100
AcDbLinetypeTableRecord
  2
PHANTOM
 70
64
  3
_____ _ _ _____ _ _ _____ _ _ _____
 72
65
 73
6
 40
0.8
 49
0.45
 74
0
 49
-0.05
 74
0
 49
0.1
 74
0
 49
-0.05
 74
0
 49
0.1
 74
0
 49
-0.05
 74
0
  0
LTYPE
  5
1F8
100
AcDbSymbolTableRecord
100
AcDbLinetypeTableRecord
  2
DOT
 70
64
  3
. . . . . . . . . . . . . . . . . . . .
 72
65
 73
2
 40
0.2
 49
0.1
 74
0
 49
-0.1
 74
0
  0
LTYPE
  5
1F9
100
AcDbSymbolTableRecord
100
AcDbLinetypeTableRecord
  2
DASHED
 70
64
  3
- - - - - - - - - - - - - - - - - - - -
 72
65
 73
2
 40
0.2
 49
0.1
 74
0
 49
-0.1
 74
0
  0
ENDTAB
  0
TABLE
  2
LAYER
  5
2
100
AcDbSymbolTable
 70
36
  0
LAYER
  5
10
100
AcDbSymbolTableRecord
100
AcDbLayerTableRecord
  2
0
 70
0
 62
7
  6
CONTINUOUS
370
-3
390
F
  0
LAYER
  5
1FA
100
AcDbSymbolTableRecord
100
AcDbLayerTableRecord
  2
DEFAULT_1
 70
0
 62
7
  6
CENTER
370
-3
390
F
  0
LAYER
  5
1FB
100
AcDbSymbolTableRecord
100
AcDbLayerTableRecord
  2
DEFAULT_2
 70
0
 62
8
  6
HIDDEN
370
-3
390
F
  0
LAYER
  5
1FC
100
AcDbSymbolTableRecord
100
AcDbLayerTableRecord
  2
DEFAULT_3
 70
0
 62
7
  6
PHANTOM
370
-3
390
F
  0
LAYER
  5
1FD
100
AcDbSymbolTableRecord
100
AcDbLayerTableRecord
  2
01_ALL_DTM_PLN
 70
0
 62
7
  6
CONTINUOUS
370
-3
390
F
  0
LAYER
  5
1FE
100
AcDbSymbolTableRecord
100
AcDbLayerTableRecord
  2
01__ASM_ALL_DTM_PLN
 70
0
 62
7
  6
CONTINUOUS
370
-3
390
F
  0
LAYER
  5
1FF
100
AcDbSymbolTableRecord
100
AcDbLayerTableRecord
  2
01__ASM_DEF_DTM_PLN
 70
0
 62
7
  6
CONTINUOUS
370
-3
390
F
  0
LAYER
  5
200
100
AcDbSymbolTableRecord
100
AcDbLayerTableRecord
  2
01___PRT_ALL_DTM_PLN
 70
0
 62
7
  6
CONTINUOUS
370
-3
390
F
  0
LAYER
  5
201
100
AcDbSymbolTableRecord
100
AcDbLayerTableRecord
  2
01___PRT_DEF_DTM_PLN
 70
0
 62
7
  6
CONTINUOUS
370
-3
390
F
  0
LAYER
  5
202
100
AcDbSymbolTableRecord
100
AcDbLayerTableRecord
  2
02_ALL_AXES
 70
0
 62
7
  6
CONTINUOUS
370
-3
390
F
  0
LAYER
  5
203
100
AcDbSymbolTableRecord
100
AcDbLayerTableRecord
  2
02__ASM_ALL_AXES
 70
0
 62
7
  6
CONTINUOUS
370
-3
390
F
  0
LAYER
  5
204
100
AcDbSymbolTableRecord
100
AcDbLayerTableRecord
  2
02___PRT_ALL_AXES
 70
0
 62
7
  6
CONTINUOUS
370
-3
390
F
  0
LAYER
  5
205
100
AcDbSymbolTableRecord
100
AcDbLayerTableRecord
  2
03_ALL_CURVES
 70
0
 62
7
  6
CONTINUOUS
370
-3
390
F
  0
LAYER
  5
206
100
AcDbSymbolTableRecord
100
AcDbLayerTableRecord
  2
03__ASM_ALL_CURVES
 70
0
 62
7
  6
CONTINUOUS
370
-3
390
F
  0
LAYER
  5
207
100
AcDbSymbolTableRecord
100
AcDbLayerTableRecord
  2
03___PRT_ALL_CURVES
 70
0
 62
7
  6
CONTINUOUS
370
-3
390
F
  0
LAYER
  5
208
100
AcDbSymbolTableRecord
100
AcDbLayerTableRecord
  2
04_ALL_DTM_PNT
 70
0
 62
7
  6
CONTINUOUS
370
-3
390
F
  0
LAYER
  5
209
100
AcDbSymbolTableRecord
100
AcDbLayerTableRecord
  2
04__ASM_ALL_DTM_PNT
 70
0
 62
7
  6
CONTINUOUS
370
-3
390
F
  0
LAYER
  5
20A
100
AcDbSymbolTableRecord
100
AcDbLayerTableRecord
  2
04___PRT_ALL_DTM_PNT
 70
0
 62
7
  6
CONTINUOUS
370
-3
390
F
  0
LAYER
  5
20B
100
AcDbSymbolTableRecord
100
AcDbLayerTableRecord
  2
05_ALL_DTM_CSYS
 70
0
 62
7
  6
CONTINUOUS
370
-3
390
F
  0
LAYER
  5
20C
100
AcDbSymbolTableRecord
100
AcDbLayerTableRecord
  2
05__ASM_ALL_DTM_CSYS
 70
0
 62
7
  6
CONTINUOUS
370
-3
390
F
  0
LAYER
  5
20D
100
AcDbSymbolTableRecord
100
AcDbLayerTableRecord
  2
05__ASM_DEF_DTM_CSYS
 70
0
 62
7
  6
CONTINUOUS
370
-3
390
F
  0
LAYER
  5
20E
100
AcDbSymbolTableRecord
100
AcDbLayerTableRecord
  2
05___PRT_ALL_DTM_CSYS
 70
0
 62
7
  6
CONTINUOUS
370
-3
390
F
  0
LAYER
  5
20F
100
AcDbSymbolTableRecord
100
AcDbLayerTableRecord
  2
05___PRT_DEF_DTM_CSYS
 70
0
 62
7
  6
CONTINUOUS
370
-3
390
F
  0
LAYER
  5
210
100
AcDbSymbolTableRecord
100
AcDbLayerTableRecord
  2
06_ALL_SURFS
 70
0
 62
7
  6
CONTINUOUS
370
-3
390
F
  0
LAYER
  5
211
100
AcDbSymbolTableRecord
100
AcDbLayerTableRecord
  2
06__ASM_ALL_SURFS
 70
0
 62
7
  6
CONTINUOUS
370
-3
390
F
  0
LAYER
  5
212
100
AcDbSymbolTableRecord
100
AcDbLayerTableRecord
  2
06___PRT_ALL_SURFS
 70
0
 62
7
  6
CONTINUOUS
370
-3
390
F
  0
LAYER
  5
213
100
AcDbSymbolTableRecord
100
AcDbLayerTableRecord
  2
07__ASM_ALL_SKELETONS
 70
0
 62
7
  6
CONTINUOUS
370
-3
390
F
  0
ENDTAB
  0
TABLE
  2
STYLE
  5
3
100
AcDbSymbolTable
 70
1
  0
STYLE
  5
11
100
AcDbSymbolTableRecord
100
AcDbTextStyleTableRecord
  2
STANDARD
 70
0
 40
0.0
 41
0.6
 50
0.0
 71
0
 42
0.2
  3
txt
  4

  0
STYLE
  5
214
100
AcDbSymbolTableRecord
100
AcDbTextStyleTableRecord
  2
TEXTSTYLE_1
 70
0
 40
0.0
 41
0.8
 50
0.0
 71
0
 42
0.2
  3
gdt
  4

  0
ENDTAB
  0
TABLE
  2
VIEW
  5
6
100
AcDbSymbolTable
 70
0
  0
ENDTAB
  0
TABLE
  2
UCS
  5
7
100
AcDbSymbolTable
 70
0
  0
ENDTAB
  0
TABLE
  2
APPID
  5
9
100
AcDbSymbolTable
 70
1
  0
APPID
  5
215
100
AcDbSymbolTableRecord
100
AcDbRegAppTableRecord
  2
ACAD
 70
0
  0
ENDTAB
  0
TABLE
  2
BLOCK_RECORD
  5
1
100
AcDbSymbolTable
 70
0
  0
BLOCK_RECORD
  5
216
100
AcDbSymbolTableRecord
100
AcDbBlockTableRecord
  2
*Model_Space
  0
BLOCK_RECORD
  5
217
100
AcDbSymbolTableRecord
100
AcDbBlockTableRecord
  2
*Paper_Space
  0
BLOCK_RECORD
  5
218
100
AcDbSymbolTableRecord
100
AcDbBlockTableRecord
  2
_FILLED
  0
ENDTAB
  0
TABLE
  2
DIMSTYLE
  5
A
100
AcDbSymbolTable
 70
1
100
AcDbDimStyleTable
 71
0
  0
DIMSTYLE
105
219
100
AcDbSymbolTableRecord
100
AcDbDimStyleTableRecord
  2
STANDARD
 70
0
  3

  4

 40
1.0
 41
3.5
 42
1.0
 43
0.38
 44
3.0
 45
0.0
 46
0.0
 47
0.0001
 48
0.0001
140
4.0
141
0.09
142
0.0
143
25.4
144
1.0
145
0.0
146
1.0
147
0.625
 71
1.0
 72
0.0
 73
0
 74
0
 75
0
 76
0
 77
1
 78
8
 79
2
170
0
171
3
172
0
173
0
174
0
175
0
176
0
177
0
178
0
270
2
179
4
271
4
272
4
273
2
274
2
275
0
280
0
281
0
282
0
283
1
284
8
285
0
286
0
287
3
288
0
340
11
278
46
341
218
342
218
343
218
344
218
  0
ENDTAB
  0
ENDSEC
  0
SECTION
  2
BLOCKS
  0
BLOCK
  5
20
100
AcDbEntity
  8
0
100
AcDbBlockBegin
  2
*Model_Space
 70
0
 10
0.0
 20
0.0
 30
0.0
  3
*Model_Space
  1

  0
ENDBLK
  5
21
100
AcDbEntity
  8
0
100
AcDbBlockEnd
  0
BLOCK
  5
1C
100
AcDbEntity
  8
0
100
AcDbBlockBegin
  2
*Paper_Space
 70
0
 10
0.0
 20
0.0
 30
0.0
  3
*Paper_Space
  1

  0
ENDBLK
  5
1D
100
AcDbEntity
  8
0
100
AcDbBlockEnd
  0
BLOCK
  5
21A
100
AcDbEntity
  8
0
100
AcDbBlockBegin
  2
_FILLED
 70
64
 10
0.0
 20
0.0
  3
_FILLED
  1

  0
SOLID
  5
21B
100
AcDbEntity
  8
0
  6
BYBLOCK
 62
0
100
AcDbTrace
 10
0.0
 20
0.0
 11
-1.0
 21
0.2857142857
 12
-1.0
 22
-0.2857142857
 13
-1.0
 23
-0.2857142857
  0
ENDBLK
  5
21C
100
AcDbEntity
  8
0
  6
BYBLOCK
 62
0
100
AcDbBlockEnd
  0
ENDSEC
  0
SECTION
  2
ENTITIES
  0
LINE
  5
21D
100
AcDbEntity
  8
0
100
AcDbLine
 62
7
  6
CONTINUOUS
 10
133.8426827692
 20
18.5830366486
 11
125.7426827692
 21
18.5830366486
  0
LINE
  5
21E
100
AcDbEntity
  8
0
100
AcDbLine
 62
7
  6
CONTINUOUS
 10
134.723420535
 20
18.8830366486
 11
133.8426827692
 21
18.8830366486
  0
LINE
  5
21F
100
AcDbEntity
  8
0
100
AcDbLine
 62
7
  6
CONTINUOUS
 10
125.6228678269
 20
18.8830366486
 11
124.7426827692
 21
18.8830366486
  0
LINE
  5
220
100
AcDbEntity
  8
0
100
AcDbLine
 62
9
  6
CONTINUOUS
 10
124.7426827692
 20
19.9830353218
 11
125.6324671965
 21
19.9830168054
  0
LINE
  5
221
100
AcDbEntity
  8
0
100
AcDbLine
 62
9
  6
CONTINUOUS
 10
134.0165227329
 20
19.9830213386
 11
134.6824673695
 21
19.9830353322
  0
LINE
  5
222
100
AcDbEntity
  8
0
100
AcDbLine
 62
7
  6
CONTINUOUS
 10
125.6344309154
 20
20.2080366486
 11
125.7426827692
 21
20.2080366486
  0
LINE
  5
223
100
AcDbEntity
  8
0
100
AcDbLine
 62
7
  6
CONTINUOUS
 10
124.7426827692
 20
21.2830366486
 11
128.5430160424
 21
21.2830366486
  0
LINE
  5
224
100
AcDbEntity
  8
0
100
AcDbLine
 62
7
  6
CONTINUOUS
 10
134.9423494961
 20
21.2830366486
 11
135.4103020622
 21
21.2830366486
  0
LINE
  5
225
100
AcDbEntity
  8
0
100
AcDbLine
 62
7
  6
CONTINUOUS
 10
124.7426827692
 20
22.0830366486
 11
127.2007938038
 21
22.0830366486
  0
LINE
  5
226
100
AcDbEntity
  8
0
100
AcDbLine
 62
7
  6
CONTINUOUS
 10
131.3160536602
 20
22.4830366486
 11
132.1693118782
 21
22.4830366486
  0
LINE
  5
227
100
AcDbEntity
  8
0
100
AcDbLine
 62
7
  6
CONTINUOUS
 10
129.1426827692
 20
22.6830366486
 11
133.8426827692
 21
22.6830366486
  0
LINE
  5
228
100
AcDbEntity
  8
0
100
AcDbLine
 62
7
  6
CONTINUOUS
 10
127.5426827692
 20
23.2230366486
 11
127.2107424331
 21
23.2230366486
  0
LINE
  5
229
100
AcDbEntity
  8
0
100
AcDbLine
 62
7
  6
CONTINUOUS
 10
132.7426813901
 20
23.7830366486
 11
130.7426841483
 21
23.7830366486
  0
LINE
  5
22A
100
AcDbEntity
  8
0
100
AcDbLine
 62
7
  6
CONTINUOUS
 10
127.2226109733
 20
24.5830366486
 11
135.2906740647
 21
24.5830366486
  0
LINE
  5
22B
100
AcDbEntity
  8
0
100
AcDbLine
 62
7
  6
CONTINUOUS
 10
134.7252290337
 20
24.8830366486
 11
127.2252290337
 21
24.8830366486
  0
LINE
  5
22C
100
AcDbEntity
  8
0
100
AcDbLine
 62
7
  6
CONTINUOUS
 10
124.7426827692
 20
26.8830366486
 11
156.7426827692
 21
26.8830366486
  0
LINE
  5
22D
100
AcDbEntity
  8
0
100
AcDbLine
 62
7
  6
CONTINUOUS
 10
125.0426827692
 20
27.7807074842
 11
156.4426827692
 21
27.7807074842
  0
LINE
  5
22E
100
AcDbEntity
  8
0
100
AcDbLine
 62
7
  6
CONTINUOUS
 10
156.7426827692
 20
27.7876916523
 11
139.8292571522
 21
27.7876916523
  0
LINE
  5
22F
100
AcDbEntity
  8
0
100
AcDbLine
 62
7
  6
CONTINUOUS
 10
125.0426805461
 20
28.3349651521
 11
124.7426827692
 21
28.3351200416
  0
LINE
  5
230
100
AcDbEntity
  8
0
100
AcDbLine
 62
7
  6
CONTINUOUS
 10
139.809998005
 20
28.8910474556
 11
139.3426827692
 21
28.8910474556
  0
LINE
  5
231
100
AcDbEntity
  8
0
100
AcDbLine
 62
7
  6
CONTINUOUS
 10
156.7426827692
 20
28.9830366486
 11
139.8083923277
 21
28.9830366486
  0
LINE
  5
232
100
AcDbEntity
  8
0
100
AcDbLine
 62
7
  6
CONTINUOUS
 10
125.0426827692
 20
29.0164227783
 11
139.3426827692
 21
29.0164227783
  0
LINE
  5
233
100
AcDbEntity
  8
0
100
AcDbLine
 62
7
  6
CONTINUOUS
 10
125.0426827692
 20
29.6830366486
 11
139.7961737822
 21
29.6830366486
  0
LINE
  5
234
100
AcDbEntity
  8
0
100
AcDbLine
 62
7
  6
CONTINUOUS
 10
139.7926827692
 20
29.8830366486
 11
124.7426827692
 21
29.8830366486
  0
LINE
  5
235
100
AcDbEntity
  8
0
100
AcDbLine
 62
7
  6
CONTINUOUS
 10
142.2326827692
 20
121.3064053156
 11
142.4926827692
 21
121.5664053156
  0
LINE
  5
236
100
AcDbEntity
  8
0
100
AcDbLine
 62
7
  6
CONTINUOUS
 10
146.6504525801
 20
112.8830366486
 11
149.8558756603
 21
114.1609320583
  0
LINE
  5
237
100
AcDbEntity
  8
0
100
AcDbLine
 62
7
  6
CONTINUOUS
 10
149.8857914706
 20
113.9575507965
 11
147.1905220271
 21
112.8830366486
  0
LINE
  5
238
100
AcDbEntity
  8
0
100
AcDbLine
 62
7
  6
CONTINUOUS
 10
136.7426827692
 20
110.8830366486
 11
136.7112660452
 21
110.8516199246
  0
LINE
  5
239
100
AcDbEntity
  8
0
100
AcDbLine
 62
7
  6
CONTINUOUS
 10
124.7426827692
 20
45.8830366486
 11
156.7426827692
 21
45.8830366486
  0
LINE
  5
23A
100
AcDbEntity
  8
0
100
AcDbLine
 62
7
  6
CONTINUOUS
 10
138.9926827692
 20
128.7664053156
 11
140.1426827692
 21
131.1664053156
  0
LINE
  5
23B
100
AcDbEntity
  8
0
100
AcDbLine
 62
7
  6
CONTINUOUS
 10
136.7112660452
 20
107.8830366486
 11
136.7426827692
 21
107.9144533727
  0
LINE
  5
23C
100
AcDbEntity
  8
0
100
AcDbLine
 62
7
  6
CONTINUOUS
 10
137.746794165
 20
98.994041024
 11
137.6368157196
 21
98.8830366486
  0
LINE
  5
23D
100
AcDbEntity
  8
0
100
AcDbLine
 62
7
  6
CONTINUOUS
 10
136.2488498628
 20
98.9975744103
 11
136.1343120426
 21
98.8830366486
  0
LINE
  5
23E
100
AcDbEntity
  8
0
100
AcDbLine
 62
7
  6
CONTINUOUS
 10
124.7426827692
 20
18.8830579216
 11
124.7426827692
 21
118.8830366486
  0
LINE
  5
23F
100
AcDbEntity
  8
0
100
AcDbLine
 62
7
  6
CONTINUOUS
 10
125.0426827692
 20
26.8850918312
 11
125.0426827692
 21
29.6830366486
  0
LINE
  5
240
100
AcDbEntity
  8
0
100
AcDbLine
 62
7
  6
CONTINUOUS
 10
129.1095181459
 20
24.5830366486
 11
129.1426827692
 21
22.6830366486
  0
LINE
  5
241
100
AcDbEntity
  8
0
100
AcDbLine
 62
7
  6
CONTINUOUS
 10
126.6074163185
 20
112.8830366486
 11
126.6018835622
 21
113.5170277191
  0
LINE
  5
242
100
AcDbEntity
  8
0
100
AcDbLine
 62
7
  6
CONTINUOUS
 10
126.7833400683
 20
112.8830366486
 11
126.7312373486
 21
118.853416961
  0
LINE
  5
243
100
AcDbEntity
  8
0
100
AcDbLine
 62
7
  6
CONTINUOUS
 10
125.7426827692
 20
21.2830366486
 11
125.7426827692
 21
18.5830366486
  0
LINE
  5
244
100
AcDbEntity
  8
0
100
AcDbLine
 62
7
  6
CONTINUOUS
 10
126.5926827692
 20
29.6830366486
 11
126.5926827692
 21
29.8830366486
  0
LINE
  5
245
100
AcDbEntity
  8
0
100
AcDbLine
 62
7
  6
CONTINUOUS
 10
126.7426827692
 20
29.6830366486
 11
126.7426827692
 21
29.8830366486
  0
LINE
  5
246
100
AcDbEntity
  8
0
100
AcDbLine
 62
7
  6
CONTINUOUS
 10
127.5426827692
 20
21.2830366486
 11
127.5426827692
 21
24.5830366486
  0
LINE
  5
247
100
AcDbEntity
  8
0
100
AcDbLine
 62
7
  6
CONTINUOUS
 10
128.1426827692
 20
29.6830366486
 11
128.1426827692
 21
29.8830366486
  0
LINE
  5
248
100
AcDbEntity
  8
0
100
AcDbLine
 62
7
  6
CONTINUOUS
 10
128.5426827692
 20
20.583518843
 11
128.5426827692
 21
22.4145917875
  0
LINE
  5
249
100
AcDbEntity
  8
0
100
AcDbLine
 62
9
  6
CONTINUOUS
 10
128.9426827692
 20
21.9371577584
 11
128.9426827692
 21
20.2604644883
  0
LINE
  5
24A
100
AcDbEntity
  8
0
100
AcDbLine
 62
7
  6
CONTINUOUS
 10
125.6438123009
 20
21.2830366486
 11
125.6228679959
 21
18.8830560187
  0
LINE
  5
24B
100
AcDbEntity
  8
0
100
AcDbLine
 62
7
  6
CONTINUOUS
 10
127.2426827692
 20
26.8830366486
 11
127.2007938038
 21
22.0830366486
  0
LINE
  5
24C
100
AcDbEntity
  8
0
100
AcDbLine
 62
7
  6
CONTINUOUS
 10
138.7127705688
 20
105.6351732479
 11
138.7198003423
 21
105.6509065506
  0
LINE
  5
24D
100
AcDbEntity
  8
0
100
AcDbLine
 62
7
  6
CONTINUOUS
 10
129.7426827692
 20
112.8830366486
 11
129.2177507881
 21
118.8830366486
  0
LINE
  5
24E
100
AcDbEntity
  8
0
100
AcDbLine
 62
7
  6
CONTINUOUS
 10
129.4677507881
 20
118.8830366486
 11
129.9926827692
 21
112.8830366486
  0
LINE
  5
24F
100
AcDbEntity
  8
0
100
AcDbLine
 62
7
  6
CONTINUOUS
 10
132.5843334947
 20
24.5830366486
 11
132.5764777183
 21
24.8830366486
  0
LINE
  5
250
100
AcDbEntity
  8
0
100
AcDbLine
 62
7
  6
CONTINUOUS
 10
132.7426827692
 20
23.7830366486
 11
132.7522823238
 21
22.6830366486
  0
LINE
  5
251
100
AcDbEntity
  8
0
100
AcDbLine
 62
7
  6
CONTINUOUS
 10
130.507299862
 20
112.8830366486
 11
130.507299862
 21
110.8516199246
  0
LINE
  5
252
100
AcDbEntity
  8
0
100
AcDbLine
 62
7
  6
CONTINUOUS
 10
130.9926827692
 20
29.6830366484
 11
130.9926827692
 21
29.8830366486
  0
LINE
  5
253
100
AcDbEntity
  8
0
100
AcDbLine
 62
7
  6
CONTINUOUS
 10
132.4926827692
 20
29.6830366485
 11
132.4926827692
 21
29.8830366486
  0
LINE
  5
254
100
AcDbEntity
  8
0
100
AcDbLine
 62
7
  6
CONTINUOUS
 10
130.7426827692
 20
23.7830366486
 11
130.7330832147
 21
22.6830366486
  0
LINE
  5
255
100
AcDbEntity
  8
0
100
AcDbLine
 62
7
  6
CONTINUOUS
 10
154.8834792069
 20
113.5170248267
 11
155.3910395217
 21
114.3830366486
  0
LINE
  5
256
100
AcDbEntity
  8
0
100
AcDbLine
 62
7
  6
CONTINUOUS
 10
130.2601139178
 20
113.8403632181
 11
130.2426827692
 21
114.0396021578
  0
LINE
  5
257
100
AcDbEntity
  8
0
100
AcDbLine
 62
7
  6
CONTINUOUS
 10
133.8426827692
 20
18.5830366486
 11
133.8426827692
 21
19.9060160586
  0
LINE
  5
258
100
AcDbEntity
  8
0
100
AcDbLine
 62
9
  6
CONTINUOUS
 10
134.5426827692
 20
21.9371577578
 11
134.5426827692
 21
20.260464488
  0
LINE
  5
259
100
AcDbEntity
  8
0
100
AcDbLine
 62
7
  6
CONTINUOUS
 10
134.9426827692
 20
20.583518843
 11
134.9426827692
 21
22.4145917875
  0
LINE
  5
25A
100
AcDbEntity
  8
0
100
AcDbLine
 62
7
  6
CONTINUOUS
 10
135.4103020622
 20
22.7418347705
 11
135.4103020622
 21
21.2830366486
  0
LINE
  5
25B
100
AcDbEntity
  8
0
100
AcDbLine
 62
7
  6
CONTINUOUS
 10
136.1343120426
 20
107.8830366486
 11
136.1343120426
 21
98.8830366486
  0
LINE
  5
25C
100
AcDbEntity
  8
0
100
AcDbLine
 62
9
  6
CONTINUOUS
 10
136.2488498628
 20
98.9975744103
 11
136.2488372242
 21
107.8639660856
  0
LINE
  5
25D
100
AcDbEntity
  8
0
100
AcDbLine
 62
7
  6
CONTINUOUS
 10
136.7112660452
 20
110.8516199246
 11
136.7112660452
 21
107.8830366486
  0
LINE
  5
25E
100
AcDbEntity
  8
0
100
AcDbLine
 62
7
  6
CONTINUOUS
 10
136.7426827692
 20
107.9144533727
 11
136.7426827692
 21
112.8830366486
  0
LINE
  5
25F
100
AcDbEntity
  8
0
100
AcDbLine
 62
7
  6
CONTINUOUS
 10
136.9926827692
 20
107.8664053156
 11
136.9926827692
 21
106.3269974465
  0
LINE
  5
260
100
AcDbEntity
  8
0
100
AcDbLine
 62
7
  6
CONTINUOUS
 10
133.8258448668
 20
24.8830366486
 11
133.8232282881
 21
24.5832064253
  0
LINE
  5
261
100
AcDbEntity
  8
0
100
AcDbLine
 62
7
  6
CONTINUOUS
 10
134.7426827692
 20
26.8830366486
 11
134.7226109733
 21
24.5830366486
  0
LINE
  5
262
100
AcDbEntity
  8
0
100
AcDbLine
 62
7
  6
CONTINUOUS
 10
134.6857155176
 20
20.3552362282
 11
134.6824673695
 21
19.9830353322
  0
LINE
  5
263
100
AcDbEntity
  8
0
100
AcDbLine
 62
7
  6
CONTINUOUS
 10
133.8426827692
 20
22.6830366486
 11
133.8758473926
 21
24.5830366486
  0
LINE
  5
264
100
AcDbEntity
  8
0
100
AcDbLine
 62
7
  6
CONTINUOUS
 10
139.8292571522
 20
27.7876916523
 11
139.7926827692
 21
29.8830366486
  0
LINE
  5
265
100
AcDbEntity
  8
0
100
AcDbLine
 62
7
  6
CONTINUOUS
 10
137.7467941782
 20
76.3754762429
 11
137.6368157196
 21
98.8830366486
  0
LINE
  5
266
100
AcDbEntity
  8
0
100
AcDbLine
 62
9
  6
CONTINUOUS
 10
137.746794165
 20
98.994041024
 11
137.7467941782
 21
76.3754762429
  0
LINE
  5
267
100
AcDbEntity
  8
0
100
AcDbLine
 62
7
  6
CONTINUOUS
 10
138.7426827692
 20
112.8830366486
 11
138.7426827692
 21
107.9144533727
  0
LINE
  5
268
100
AcDbEntity
  8
0
100
AcDbLine
 62
7
  6
CONTINUOUS
 10
138.9926827692
 20
121.5664053156
 11
138.9926827692
 21
128.7664053156
  0
LINE
  5
269
100
AcDbEntity
  8
0
100
AcDbLine
 62
7
  6
CONTINUOUS
 10
139.2526827692
 20
112.8830366486
 11
139.2526827692
 21
121.3064053156
  0
LINE
  5
26A
100
AcDbEntity
  8
0
100
AcDbLine
 62
7
  6
CONTINUOUS
 10
139.3426827692
 20
27.7807074842
 11
139.3426827692
 21
29.6830366486
  0
LINE
  5
26B
100
AcDbEntity
  8
0
100
AcDbLine
 62
7
  6
CONTINUOUS
 10
139.5176827692
 20
107.8890290846
 11
139.5176827692
 21
112.8830366486
  0
LINE
  5
26C
100
AcDbEntity
  8
0
100
AcDbLine
 62
7
  6
CONTINUOUS
 10
140.1426827692
 20
106.8664053156
 11
140.1426827692
 21
105.406587341
  0
LINE
  5
26D
100
AcDbEntity
  8
0
100
AcDbLine
 62
7
  6
CONTINUOUS
 10
135.1426827692
 20
26.8830366486
 11
135.0221449517
 21
24.5830366486
  0
LINE
  5
26E
100
AcDbEntity
  8
0
100
AcDbLine
 62
7
  6
CONTINUOUS
 10
134.7234537911
 20
18.8836712128
 11
134.8051778434
 21
20.4430590263
  0
LINE
  5
26F
100
AcDbEntity
  8
0
100
AcDbLine
 62
7
  6
CONTINUOUS
 10
141.3426827692
 20
105.406587341
 11
141.3426827692
 21
106.8664053156
  0
LINE
  5
270
100
AcDbEntity
  8
0
100
AcDbLine
 62
7
  6
CONTINUOUS
 10
141.9676827692
 20
112.8830366486
 11
141.9676827692
 21
107.8890290846
  0
LINE
  5
271
100
AcDbEntity
  8
0
100
AcDbLine
 62
7
  6
CONTINUOUS
 10
142.2326827692
 20
121.3064053156
 11
142.2326827692
 21
112.8830366486
  0
LINE
  5
272
100
AcDbEntity
  8
0
100
AcDbLine
 62
7
  6
CONTINUOUS
 10
142.4926827692
 20
121.5664053156
 11
142.4926827692
 21
128.7664053156
  0
LINE
  5
273
100
AcDbEntity
  8
0
100
AcDbLine
 62
7
  6
CONTINUOUS
 10
142.7426827692
 20
112.8830366486
 11
142.7426827692
 21
107.9144533727
  0
LINE
  5
274
100
AcDbEntity
  8
0
100
AcDbLine
 62
9
  6
CONTINUOUS
 10
143.7385713735
 20
98.994041024
 11
143.7385713602
 21
76.3754762411
  0
LINE
  5
275
100
AcDbEntity
  8
0
100
AcDbLine
 62
9
  6
CONTINUOUS
 10
144.0085570504
 20
113.6530366486
 11
144.0085570504
 21
112.8830366486
  0
LINE
  5
276
100
AcDbEntity
  8
0
100
AcDbLine
 62
7
  6
CONTINUOUS
 10
144.4926827692
 20
106.3269974465
 11
144.4926827692
 21
107.8664053156
  0
LINE
  5
277
100
AcDbEntity
  8
0
100
AcDbLine
 62
7
  6
CONTINUOUS
 10
144.7426827692
 20
112.8830366486
 11
144.7426827692
 21
107.9144533727
  0
LINE
  5
278
100
AcDbEntity
  8
0
100
AcDbLine
 62
7
  6
CONTINUOUS
 10
144.7740994933
 20
110.8516199246
 11
144.7740994933
 21
107.8830366486
  0
LINE
  5
279
100
AcDbEntity
  8
0
100
AcDbLine
 62
7
  6
CONTINUOUS
 10
143.7385713541
 20
76.3754749962
 11
143.8485498188
 21
98.8830366486
  0
LINE
  5
27A
100
AcDbEntity
  8
0
100
AcDbLine
 62
9
  6
CONTINUOUS
 10
145.2365282923
 20
107.8639660819
 11
145.2365156756
 21
98.9975744103
  0
LINE
  5
27B
100
AcDbEntity
  8
0
100
AcDbLine
 62
7
  6
CONTINUOUS
 10
145.3510534958
 20
98.8830366486
 11
145.3510534958
 21
107.8830366486
  0
LINE
  5
27C
100
AcDbEntity
  8
0
100
AcDbLine
 62
9
  6
CONTINUOUS
 10
147.4085570504
 20
112.8830366486
 11
147.4085570504
 21
112.9699599497
  0
LINE
  5
27D
100
AcDbEntity
  8
0
100
AcDbLine
 62
9
  6
CONTINUOUS
 10
147.4085570504
 20
113.1852676486
 11
147.4085570504
 21
113.6530366486
  0
LINE
  5
27E
100
AcDbEntity
  8
0
100
AcDbLine
 62
7
  6
CONTINUOUS
 10
148.7426827692
 20
113.5018314342
 11
148.7426827692
 21
112.8830366486
  0
LINE
  5
27F
100
AcDbEntity
  8
0
100
AcDbLine
 62
7
  6
CONTINUOUS
 10
151.2426827692
 20
114.0396021578
 11
151.2252516207
 21
113.8403632181
  0
LINE
  5
280
100
AcDbEntity
  8
0
100
AcDbLine
 62
7
  6
CONTINUOUS
 10
151.4926827692
 20
112.8830366486
 11
152.0176147504
 21
118.8830366486
  0
LINE
  5
281
100
AcDbEntity
  8
0
100
AcDbLine
 62
7
  6
CONTINUOUS
 10
152.2676147504
 20
118.8830366486
 11
151.7426827692
 21
112.8830366486
  0
LINE
  5
282
100
AcDbEntity
  8
0
100
AcDbLine
 62
7
  6
CONTINUOUS
 10
126.6018913512
 20
113.5170306853
 11
126.0943260168
 21
114.3830366486
  0
LINE
  5
283
100
AcDbEntity
  8
0
100
AcDbLine
 62
7
  6
CONTINUOUS
 10
150.8926827692
 20
26.8830366486
 11
150.8926827692
 21
26.0708643213
  0
LINE
  5
284
100
AcDbEntity
  8
0
100
AcDbLine
 62
7
  6
CONTINUOUS
 10
150.9780656765
 20
110.8516199246
 11
150.9780656765
 21
112.8830366486
  0
LINE
  5
285
100
AcDbEntity
  8
0
100
AcDbLine
 62
9
  6
CONTINUOUS
 10
151.3336349106
 20
26.8830366486
 11
151.3336349106
 21
26.0464933692
  0
LINE
  5
286
100
AcDbEntity
  8
0
100
AcDbLine
 62
7
  6
CONTINUOUS
 10
156.0926827692
 20
25.3830366486
 11
156.0926827692
 21
26.8830366486
  0
LINE
  5
287
100
AcDbEntity
  8
0
100
AcDbLine
 62
7
  6
CONTINUOUS
 10
156.4426827692
 20
26.8850918312
 11
156.4426827692
 21
27.7807074842
  0
LINE
  5
288
100
AcDbEntity
  8
0
100
AcDbLine
 62
7
  6
CONTINUOUS
 10
156.7426827692
 20
26.8830366486
 11
156.7426827692
 21
118.8830366486
  0
LINE
  5
289
100
AcDbEntity
  8
0
100
AcDbLine
 62
7
  6
CONTINUOUS
 10
154.7020254702
 20
112.8830366486
 11
154.7541281899
 21
118.853416961
  0
LINE
  5
28A
100
AcDbEntity
  8
0
100
AcDbLine
 62
7
  6
CONTINUOUS
 10
154.87794922
 20
112.8830366486
 11
154.8834792069
 21
113.5170277433
  0
LINE
  5
28B
100
AcDbEntity
  8
0
100
AcDbLine
 62
7
  6
CONTINUOUS
 10
142.7655651962
 20
105.6509065506
 11
142.7725949697
 21
105.6351732479
  0
LINE
  5
28C
100
AcDbEntity
  8
0
100
AcDbLine
 62
7
  6
CONTINUOUS
 10
143.7385713735
 20
98.994041024
 11
143.8485498188
 21
98.8830366486
  0
LINE
  5
28D
100
AcDbEntity
  8
0
100
AcDbLine
 62
7
  6
CONTINUOUS
 10
145.3510534958
 20
98.8830366487
 11
145.2365156756
 21
98.9975744103
  0
LINE
  5
28E
100
AcDbEntity
  8
0
100
AcDbLine
 62
7
  6
CONTINUOUS
 10
136.1343120426
 20
98.8830366486
 11
137.6368157196
 21
98.8830366486
  0
LINE
  5
28F
100
AcDbEntity
  8
0
100
AcDbLine
 62
7
  6
CONTINUOUS
 10
143.8485498188
 20
98.8830366486
 11
145.3510534958
 21
98.8830366486
  0
LINE
  5
290
100
AcDbEntity
  8
0
100
AcDbLine
 62
7
  6
CONTINUOUS
 10
144.7426827692
 20
107.9144533727
 11
144.7740994933
 21
107.8830366486
  0
LINE
  5
291
100
AcDbEntity
  8
0
100
AcDbLine
 62
7
  6
CONTINUOUS
 10
142.4926827692
 20
128.7664053156
 11
141.3426827692
 21
131.1664053156
  0
LINE
  5
292
100
AcDbEntity
  8
0
100
AcDbLine
 62
7
  6
CONTINUOUS
 10
136.9926827692
 20
106.3269974465
 11
140.1426827692
 21
106.3269974465
  0
LINE
  5
293
100
AcDbEntity
  8
0
100
AcDbLine
 62
7
  6
CONTINUOUS
 10
141.3426827692
 20
106.3269974465
 11
144.4926827692
 21
106.3269974465
  0
LINE
  5
294
100
AcDbEntity
  8
0
100
AcDbLine
 62
7
  6
CONTINUOUS
 10
144.7426827692
 20
110.8830366486
 11
144.7740994933
 21
110.8516199246
  0
LINE
  5
295
100
AcDbEntity
  8
0
100
AcDbLine
 62
7
  6
CONTINUOUS
 10
145.3510534958
 20
107.8830366486
 11
145.2365282905
 21
107.863966077
  0
LINE
  5
296
100
AcDbEntity
  8
0
100
AcDbLine
 62
7
  6
CONTINUOUS
 10
141.9676827692
 20
107.8890290846
 11
142.7426827692
 21
107.9111509159
  0
LINE
  5
297
100
AcDbEntity
  8
0
100
AcDbLine
 62
7
  6
CONTINUOUS
 10
140.1426827692
 20
106.8664053156
 11
141.3426827692
 21
106.8664053156
  0
LINE
  5
298
100
AcDbEntity
  8
0
100
AcDbLine
 62
7
  6
CONTINUOUS
 10
144.4926827692
 20
107.8664053156
 11
136.9926827692
 21
107.8664053156
  0
LINE
  5
299
100
AcDbEntity
  8
0
100
AcDbLine
 62
7
  6
CONTINUOUS
 10
136.1343120426
 20
107.8830366486
 11
136.7112660452
 21
107.8830366486
  0
LINE
  5
29A
100
AcDbEntity
  8
0
100
AcDbLine
 62
7
  6
CONTINUOUS
 10
144.7740994933
 20
107.8830366486
 11
145.3510534958
 21
107.8830366486
  0
LINE
  5
29B
100
AcDbEntity
  8
0
100
AcDbLine
 62
7
  6
CONTINUOUS
 10
144.7426827692
 20
107.9144533727
 11
142.7426827692
 21
107.9144533727
  0
LINE
  5
29C
100
AcDbEntity
  8
0
100
AcDbLine
 62
7
  6
CONTINUOUS
 10
138.7426827692
 20
107.9144533727
 11
136.7426827692
 21
107.9144533727
  0
LINE
  5
29D
100
AcDbEntity
  8
0
100
AcDbLine
 62
7
  6
CONTINUOUS
 10
138.7426827692
 20
107.9111509159
 11
139.5176827692
 21
107.8890290846
  0
LINE
  5
29E
100
AcDbEntity
  8
0
100
AcDbLine
 62
7
  6
CONTINUOUS
 10
136.248837226
 20
107.8639660807
 11
136.1343120426
 21
107.8830366486
  0
LINE
  5
29F
100
AcDbEntity
  8
0
100
AcDbLine
 62
7
  6
CONTINUOUS
 10
134.2948435113
 20
112.8830366486
 11
131.5995740679
 21
113.9575507965
  0
LINE
  5
2A0
100
AcDbEntity
  8
0
100
AcDbLine
 62
7
  6
CONTINUOUS
 10
131.6294898782
 20
114.1609320583
 11
134.8349129584
 21
112.8830366486
  0
LINE
  5
2A1
100
AcDbEntity
  8
0
100
AcDbLine
 62
7
  6
CONTINUOUS
 10
139.2526827692
 20
121.3064053156
 11
138.9926827692
 21
121.5664053156
  0
LINE
  5
2A2
100
AcDbEntity
  8
0
100
AcDbLine
 62
7
  6
CONTINUOUS
 10
136.7426827692
 20
110.8830366486
 11
130.507299862
 21
110.8516199246
  0
LINE
  5
2A3
100
AcDbEntity
  8
0
100
AcDbLine
 62
7
  6
CONTINUOUS
 10
136.7112660452
 20
110.8516199246
 11
130.507299862
 21
110.8516199246
  0
LINE
  5
2A4
100
AcDbEntity
  8
0
100
AcDbLine
 62
7
  6
CONTINUOUS
 10
144.7740994933
 20
110.8516199246
 11
150.9780656765
 21
110.8516199246
  0
LINE
  5
2A5
100
AcDbEntity
  8
0
100
AcDbLine
 62
7
  6
CONTINUOUS
 10
126.6074163185
 20
112.8830366486
 11
139.5176827692
 21
112.8830366486
  0
LINE
  5
2A6
100
AcDbEntity
  8
0
100
AcDbLine
 62
7
  6
CONTINUOUS
 10
141.9676827692
 20
112.8830366486
 11
154.87794922
 21
112.8830366486
  0
LINE
  5
2A7
100
AcDbEntity
  8
0
100
AcDbLine
 62
9
  6
CONTINUOUS
 10
154.7063889023
 20
113.3830364429
 11
154.8823104679
 21
113.3830364556
  0
LINE
  5
2A8
100
AcDbEntity
  8
0
100
AcDbLine
 62
9
  6
CONTINUOUS
 10
126.7789766344
 20
113.3830366486
 11
126.6030528846
 21
113.3830366486
  0
LINE
  5
2A9
100
AcDbEntity
  8
0
100
AcDbLine
 62
7
  6
CONTINUOUS
 10
156.7426827692
 20
113.5170112449
 11
154.8834792069
 21
113.5170248267
  0
LINE
  5
2AA
100
AcDbEntity
  8
0
100
AcDbLine
 62
7
  6
CONTINUOUS
 10
126.6018863316
 20
113.5170248267
 11
124.7426827692
 21
113.5170112449
  0
LINE
  5
2AB
100
AcDbEntity
  8
0
100
AcDbLine
 62
7
  6
CONTINUOUS
 10
148.5818905938
 20
113.6530366486
 11
142.2326827692
 21
113.6530366486
  0
LINE
  5
2AC
100
AcDbEntity
  8
0
100
AcDbLine
 62
7
  6
CONTINUOUS
 10
156.7426827692
 20
114.3830366486
 11
155.3910395217
 21
114.3830366486
  0
LINE
  5
2AD
100
AcDbEntity
  8
0
100
AcDbLine
 62
7
  6
CONTINUOUS
 10
126.0943260168
 20
114.3830366486
 11
124.7426827692
 21
114.3830366486
  0
LINE
  5
2AE
100
AcDbEntity
  8
0
100
AcDbLine
 62
7
  6
CONTINUOUS
 10
150.9780656765
 20
110.8516199246
 11
144.7426827692
 21
110.8830366486
  0
LINE
  5
2AF
100
AcDbEntity
  8
0
100
AcDbLine
 62
7
  6
CONTINUOUS
 10
131.5995740679
 20
113.9575507965
 11
130.2601139178
 21
113.8403632181
  0
LINE
  5
2B0
100
AcDbEntity
  8
0
100
AcDbLine
 62
7
  6
CONTINUOUS
 10
130.2426827692
 20
114.0396021578
 11
131.6294898782
 21
114.1609320583
  0
LINE
  5
2B1
100
AcDbEntity
  8
0
100
AcDbLine
 62
7
  6
CONTINUOUS
 10
124.7426827692
 20
118.1644111656
 11
126.7372502111
 21
118.1644111656
  0
LINE
  5
2B2
100
AcDbEntity
  8
0
100
AcDbLine
 62
7
  6
CONTINUOUS
 10
154.7481153274
 20
118.1644111656
 11
156.7426827692
 21
118.1644111656
  0
LINE
  5
2B3
100
AcDbEntity
  8
0
100
AcDbLine
 62
7
  6
CONTINUOUS
 10
151.2252516207
 20
113.8403632181
 11
149.8857914706
 21
113.9575507965
  0
LINE
  5
2B4
100
AcDbEntity
  8
0
100
AcDbLine
 62
7
  6
CONTINUOUS
 10
149.8558756603
 20
114.1609320583
 11
151.2426827692
 21
114.0396021578
  0
LINE
  5
2B5
100
AcDbEntity
  8
0
100
AcDbLine
 62
7
  6
CONTINUOUS
 10
154.7541281899
 20
118.853416961
 11
152.2650233635
 21
118.853416961
  0
LINE
  5
2B6
100
AcDbEntity
  8
0
100
AcDbLine
 62
7
  6
CONTINUOUS
 10
129.220342175
 20
118.853416961
 11
126.7312373486
 21
118.853416961
  0
LINE
  5
2B7
100
AcDbEntity
  8
0
100
AcDbLine
 62
7
  6
CONTINUOUS
 10
129.4677507881
 20
118.8830366486
 11
124.7426827692
 21
118.8830366486
  0
LINE
  5
2B8
100
AcDbEntity
  8
0
100
AcDbLine
 62
7
  6
CONTINUOUS
 10
152.0176147504
 20
118.8830366486
 11
156.7426827692
 21
118.8830366486
  0
LINE
  5
2B9
100
AcDbEntity
  8
0
100
AcDbLine
 62
7
  6
CONTINUOUS
 10
142.2326827692
 20
121.3064053156
 11
139.2526827692
 21
121.3064053156
  0
LINE
  5
2BA
100
AcDbEntity
  8
0
100
AcDbLine
 62
7
  6
CONTINUOUS
 10
138.9926827692
 20
121.5664053156
 11
142.4926827692
 21
121.5664053156
  0
LINE
  5
2BB
100
AcDbEntity
  8
0
100
AcDbLine
 62
7
  6
CONTINUOUS
 10
142.4926827692
 20
128.7664053156
 11
138.9926827692
 21
128.7664053156
  0
LINE
  5
2BC
100
AcDbEntity
  8
0
100
AcDbLine
 62
7
  6
CONTINUOUS
 10
141.3426827692
 20
131.1664053156
 11
140.1426827692
 21
131.1664053156
  0
ARC
  5
2BD
100
AcDbEntity
  8
0
100
AcDbCircle
 62
7
  6
CONTINUOUS
 10
156.0926827692
 20
45.3830366486
 40
20.0
100
AcDbArc
 50
254.9299378552
 51
270.0
  0
ARC
  5
2BE
100
AcDbEntity
  8
0
100
AcDbCircle
 62
7
  6
CONTINUOUS
 10
140.7426827692
 20
113.1664053156
 40
7.8
100
AcDbArc
 50
241.2643462551
 51
254.9153907971
  0
ARC
  5
2BF
100
AcDbEntity
  8
0
100
AcDbCircle
 62
7
  6
CONTINUOUS
 10
140.7426827692
 20
113.1664053156
 40
7.8
100
AcDbArc
 50
285.0846092029
 51
298.7356537449
  0
ARC
  5
2C0
100
AcDbEntity
  8
0
100
AcDbCircle
 62
7
  6
CONTINUOUS
 10
140.7426827692
 20
113.1664053156
 40
7.7829798278
100
AcDbArc
 50
254.9352160121
 51
265.5786072777
  0
ARC
  5
2C1
100
AcDbEntity
  8
0
100
AcDbCircle
 62
7
  6
CONTINUOUS
 10
140.7426827692
 20
113.1664053156
 40
7.7829798278
100
AcDbArc
 50
274.4213927223
 51
285.0647839879
  0
ARC
  5
2C2
100
AcDbEntity
  8
0
100
AcDbCircle
 62
7
  6
CONTINUOUS
 10
128.6702955233
 20
22.4146600851
 40
0.1276127729
100
AcDbArc
 50
175.8581199482
 51
180.0310600149
  0
ARC
  5
2C3
100
AcDbEntity
  8
0
100
AcDbCircle
 62
7
  6
CONTINUOUS
 10
134.8150701551
 20
22.4146600912
 40
0.1276126329
100
AcDbArc
 50
359.9689593732
 51
4.1418822025
  0
SPLINE
  5
2C4
100
AcDbEntity
  8
0
100
AcDbSpline
 62
7
  6
CONTINUOUS
 70
0
 71
3
 72
12
 73
8
 74
0
 42
0.0000001
 43
0.0000001
 44
0.0000000001
 40
0.0
 40
0.0
 40
0.0
 40
0.0
 40
0.1298191854
 40
0.258946634
 40
0.5137410202
 40
0.7616185959
 40
1.0
 40
1.0
 40
1.0
 40
1.0
 10
156.0926827692
 20
26.1248570721
 30
0.0
 10
155.8867023454
 20
26.1154363264
 30
0.0
 10
155.4759499723
 20
26.0941731509
 30
0.0
 10
154.6613810042
 20
26.046168037
 30
0.0
 10
153.6595638948
 20
25.9869148477
 30
0.0
 10
152.4824649879
 20
25.959534193
 30
0.0
 10
151.7096014599
 20
26.0016756911
 30
0.0
 10
151.3336349106
 20
26.0464933693
 30
0.0
  0
SPLINE
  5
2C5
100
AcDbEntity
  8
0
100
AcDbSpline
 62
7
  6
CONTINUOUS
 70
0
 71
3
 72
9
 73
5
 74
0
 42
0.0000001
 43
0.0000001
 44
0.0000000001
 40
0.0
 40
0.0
 40
0.0
 40
0.0
 40
0.7299431793
 40
1.0
 40
1.0
 40
1.0
 40
1.0
 10
151.3336349106
 20
26.0464933692
 30
0.0
 10
151.2268953818
 20
26.0592174211
 30
0.0
 10
151.0797369279
 20
26.0697553532
 30
0.0
 10
150.9324405996
 20
26.0711473706
 30
0.0
 10
150.8926827692
 20
26.0708643213
 30
0.0
  0
SPLINE
  5
2C6
100
AcDbEntity
  8
0
100
AcDbSpline
 62
7
  6
CONTINUOUS
 70
0
 71
3
 72
14
 73
10
 74
0
 42
0.0000001
 43
0.0000001
 44
0.0000000001
 40
0.0
 40
0.0
 40
0.0
 40
0.0
 40
0.0370877104
 40
0.1004641204
 40
0.1910902612
 40
0.3077695691
 40
0.4488382829
 40
0.6124967652
 40
1.0
 40
1.0
 40
1.0
 40
1.0
 10
134.9426827692
 20
20.5835165295
 30
0.0
 10
134.9426827692
 20
20.5771009814
 30
0.0
 10
134.9337873488
 20
20.5608569156
 30
0.0
 10
134.9129991153
 20
20.5358303653
 30
0.0
 10
134.8792445945
 20
20.5029114771
 30
0.0
 10
134.8336259279
 20
20.4636630026
 30
0.0
 10
134.7762595174
 20
20.418590987
 30
0.0
 10
134.6794697039
 20
20.3480880582
 30
0.0
 10
134.5996555411
 20
20.2957820201
 30
0.0
 10
134.5426827692
 20
20.260464488
 30
0.0
  0
SPLINE
  5
2C7
100
AcDbEntity
  8
0
100
AcDbSpline
 62
7
  6
CONTINUOUS
 70
0
 71
3
 72
10
 73
6
 74
0
 42
0.0000001
 43
0.0000001
 44
0.0000000001
 40
0.0
 40
0.0
 40
0.0
 40
0.0
 40
0.5495133258
 40
0.7915804171
 40
1.0
 40
1.0
 40
1.0
 40
1.0
 10
131.7426827692
 20
19.4830366484
 30
0.0
 10
131.2048867777
 20
19.4830366484
 30
0.0
 10
130.4234140019
 20
19.5979867665
 30
0.0
 10
129.5065855916
 20
19.9452849366
 30
0.0
 10
129.1160496479
 20
20.1529940231
 30
0.0
 10
128.9426827692
 20
20.2604644883
 30
0.0
  0
SPLINE
  5
2C8
100
AcDbEntity
  8
0
100
AcDbSpline
 62
7
  6
CONTINUOUS
 70
0
 71
3
 72
11
 73
7
 74
0
 42
0.0000001
 43
0.0000001
 44
0.0000000001
 40
0.0
 40
0.0
 40
0.0
 40
0.0
 40
0.2825449876
 40
0.5501736426
 40
0.7918787111
 40
1.0
 40
1.0
 40
1.0
 40
1.0
 10
131.7426827692
 20
19.4830366484
 30
0.0
 10
132.0196184312
 20
19.4830366484
 30
0.0
 10
132.5597682305
 20
19.5237495908
 30
0.0
 10
133.3192960905
 20
19.6957295377
 30
0.0
 10
133.9789620139
 20
19.9451803726
 30
0.0
 10
134.3693039423
 20
20.152986616
 30
0.0
 10
134.5426827692
 20
20.260464488
 30
0.0
  0
SPLINE
  5
2C9
100
AcDbEntity
  8
0
100
AcDbSpline
 62
7
  6
CONTINUOUS
 70
0
 71
3
 72
14
 73
10
 74
0
 42
0.0000001
 43
0.0000001
 44
0.0000000001
 40
0.0
 40
0.0
 40
0.0
 40
0.0
 40
0.037085589
 40
0.1004602763
 40
0.1910746939
 40
0.3077385302
 40
0.4488028881
 40
0.6124710667
 40
1.0
 40
1.0
 40
1.0
 40
1.0
 10
128.5426827692
 20
20.5835165326
 30
0.0
 10
128.5426827692
 20
20.5771013606
 30
0.0
 10
128.551575113
 20
20.5608569959
 30
0.0
 10
128.5723620217
 20
20.535831976
 30
0.0
 10
128.6061157672
 20
20.5029198776
 30
0.0
 10
128.651733697
 20
20.4636789588
 30
0.0
 10
128.7091004831
 20
20.4186105534
 30
0.0
 10
128.8058929563
 20
20.3481026546
 30
0.0
 10
128.8857063003
 20
20.2957843122
 30
0.0
 10
128.9426827692
 20
20.2604644883
 30
0.0
  0
SPLINE
  5
2CA
100
AcDbEntity
  8
0
100
AcDbSpline
 62
7
  6
CONTINUOUS
 70
0
 71
3
 72
9
 73
5
 74
0
 42
0.0000001
 43
0.0000001
 44
0.0000000001
 40
0.0
 40
0.0
 40
0.0
 40
0.0
 40
0.563076559
 40
1.0
 40
1.0
 40
1.0
 40
1.0
 10
135.2906749639
 20
24.5830366486
 30
0.0
 10
135.3143938657
 20
24.2375559301
 30
0.0
 10
135.3561575677
 20
23.6239738385
 30
0.0
 10
135.3951153208
 20
23.0101957092
 30
0.0
 10
135.4103020622
 20
22.7419158303
 30
0.0
  0
SPLINE
  5
2CB
100
AcDbEntity
  8
0
100
AcDbSpline
 62
7
  6
CONTINUOUS
 70
0
 71
3
 72
10
 73
6
 74
0
 42
0.0000001
 43
0.0000001
 44
0.0000000001
 40
0.0
 40
0.0
 40
0.0
 40
0.0
 40
0.5474394129
 40
0.7892659413
 40
1.0
 40
1.0
 40
1.0
 40
1.0
 10
131.7426950693
 20
21.0830360531
 30
0.0
 10
131.2014141627
 20
21.0830357506
 30
0.0
 10
130.412705677
 20
21.2046479316
 30
0.0
 10
129.4962634824
 20
21.5821643188
 30
0.0
 10
129.1110155735
 20
21.8143597045
 30
0.0
 10
128.9426827692
 20
21.9371577584
 30
0.0
  0
SPLINE
  5
2CC
100
AcDbEntity
  8
0
100
AcDbSpline
 62
7
  6
CONTINUOUS
 70
0
 71
3
 72
11
 73
7
 74
0
 42
0.0000001
 43
0.0000001
 44
0.0000000001
 40
0.0
 40
0.0
 40
0.0
 40
0.0
 40
0.1581227549
 40
0.3775771358
 40
0.6600553028
 40
1.0
 40
1.0
 40
1.0
 40
1.0
 10
134.9426827692
 20
22.4145909001
 30
0.0
 10
134.9426827692
 20
22.3810085144
 30
0.0
 10
134.9142904657
 20
22.3023498717
 30
0.0
 10
134.8316048466
 20
22.1890576685
 30
0.0
 10
134.7046125155
 20
22.0620985445
 30
0.0
 10
134.601010197
 20
21.9797073644
 30
0.0
 10
134.5426827692
 20
21.9371577578
 30
0.0
  0
SPLINE
  5
2CD
100
AcDbEntity
  8
0
100
AcDbSpline
 62
7
  6
CONTINUOUS
 70
0
 71
3
 72
9
 73
5
 74
0
 42
0.0000001
 43
0.0000001
 44
0.0000000001
 40
0.0
 40
0.0
 40
0.0
 40
0.0
 40
0.2492785081
 40
1.0
 40
1.0
 40
1.0
 40
1.0
 10
135.4103020622
 20
22.7418347705
 30
0.0
 10
135.3725610217
 20
22.7137922971
 30
0.0
 10
135.2199891203
 20
22.602883611
 30
0.0
 10
135.0627634913
 20
22.4983646165
 30
0.0
 10
134.9423494973
 20
22.4238580233
 30
0.0
  0
SPLINE
  5
2CE
100
AcDbEntity
  8
0
100
AcDbSpline
 62
7
  6
CONTINUOUS
 70
0
 71
3
 72
10
 73
6
 74
0
 42
0.0000001
 43
0.0000001
 44
0.0000000001
 40
0.0
 40
0.0
 40
0.0
 40
0.0
 40
0.5474543645
 40
0.7892780582
 40
1.0
 40
1.0
 40
1.0
 40
1.0
 10
131.7426950693
 20
21.0830360531
 30
0.0
 10
132.2839851614
 20
21.0830363555
 30
0.0
 10
133.0727199181
 20
21.2046082384
 30
0.0
 10
133.9890957521
 20
21.5822432533
 30
0.0
 10
134.3743613846
 20
21.8143680344
 30
0.0
 10
134.5426827692
 20
21.9371577578
 30
0.0
  0
SPLINE
  5
2CF
100
AcDbEntity
  8
0
100
AcDbSpline
 62
7
  6
CONTINUOUS
 70
0
 71
3
 72
9
 73
5
 74
0
 42
0.0000001
 43
0.0000001
 44
0.0000000001
 40
0.0
 40
0.0
 40
0.0
 40
0.0
 40
0.251680124
 40
1.0
 40
1.0
 40
1.0
 40
1.0
 10
128.5430160418
 20
22.4238771087
 30
0.0
 10
128.4534730505
 20
22.4792821701
 30
0.0
 10
128.1030327409
 20
22.7079775248
 30
0.0
 10
127.7743067808
 20
22.969649812
 30
0.0
 10
127.5426827692
 20
23.1802936431
 30
0.0
  0
SPLINE
  5
2D0
100
AcDbEntity
  8
0
100
AcDbSpline
 62
7
  6
CONTINUOUS
 70
0
 71
3
 72
11
 73
7
 74
0
 42
0.0000001
 43
0.0000001
 44
0.0000000001
 40
0.0
 40
0.0
 40
0.0
 40
0.0
 40
0.3399458047
 40
0.6224253633
 40
0.8418787216
 40
1.0
 40
1.0
 40
1.0
 40
1.0
 10
128.9426827692
 20
21.9371577584
 30
0.0
 10
128.8843551454
 20
21.9797075081
 30
0.0
 10
128.7807522816
 20
22.0620989119
 30
0.0
 10
128.653760022
 20
22.1890585392
 30
0.0
 10
128.571074458
 20
22.3023505945
 30
0.0
 10
128.5426827692
 20
22.3810088307
 30
0.0
 10
128.5426827692
 20
22.4145909063
 30
0.0
  0
SPLINE
  5
2D1
100
AcDbEntity
  8
0
100
AcDbSpline
 62
7
  6
CONTINUOUS
 70
0
 71
3
 72
9
 73
5
 74
0
 42
0.0000001
 43
0.0000001
 44
0.0000000001
 40
0.0
 40
0.0
 40
0.0
 40
0.0
 40
0.5
 40
1.0
 40
1.0
 40
1.0
 40
1.0
 10
156.4426827692
 20
26.8850918312
 30
0.0
 10
151.2093501107
 20
26.8823470967
 30
0.0
 10
140.7426827693
 20
26.8837196174
 30
0.0
 10
130.2760154278
 20
26.8823470967
 30
0.0
 10
125.0426827692
 20
26.8850918312
 30
0.0
  0
LINE
  5
2D2
100
AcDbEntity
  8
0
100
AcDbLine
 62
7
  6
CONTINUOUS
 10
124.7426827692
 20
29.2248599122
 11
125.042683617
 21
29.2251169903
  0
SPLINE
  5
2D3
100
AcDbEntity
  8
0
100
AcDbSpline
 62
7
  6
CONTINUOUS
 70
0
 71
3
 72
29
 73
25
 74
0
 42
0.0000001
 43
0.0000001
 44
0.0000000001
 40
0.0
 40
0.0
 40
0.0
 40
0.0
 40
0.0052846442
 40
0.0146702884
 40
0.0283121596
 40
0.0461604871
 40
0.0680601477
 40
0.0938281136
 40
0.1560192115
 40
0.2305594438
 40
0.3147914663
 40
0.4056929419
 40
0.4999913403
 40
0.5942896678
 40
0.6851915466
 40
0.7694259361
 40
0.8439702075
 40
0.9061655206
 40
0.931935611
 40
0.9538366826
 40
0.9716861746
 40
0.98532872
 40
0.9947150427
 40
1.0
 40
1.0
 40
1.0
 40
1.0
 10
145.2369245767
 20
98.9971655676
 30
0.0
 10
145.2256930512
 20
99.0084028523
 30
0.0
 10
145.1826198712
 20
99.0246915212
 30
0.0
 10
145.1011881836
 20
99.0454282312
 30
0.0
 10
144.9793174883
 20
99.0656471709
 30
0.0
 10
144.8202950792
 20
99.0858290528
 30
0.0
 10
144.624179756
 20
99.1052314174
 30
0.0
 10
144.2949751114
 20
99.1315600401
 30
0.0
 10
143.8071734205
 20
99.1597521569
 30
0.0
 10
143.1433877443
 20
99.1863368673
 30
0.0
 10
142.3930008423
 20
99.2061203761
 30
0.0
 10
141.583054462
 20
99.2183321975
 30
0.0
 10
140.7427620931
 20
99.2224558439
 30
0.0
 10
139.9024685051
 20
99.2183336369
 30
0.0
 10
139.0925139892
 20
99.2061231769
 30
0.0
 10
138.3421065709
 20
99.186341287
 30
0.0
 10
137.6782888975
 20
99.1597572798
 30
0.0
 10
137.1904560252
 20
99.1315640167
 30
0.0
 10
136.861227994
 20
99.1052356359
 30
0.0
 10
136.6650985411
 20
99.0858322673
 30
0.0
 10
136.5060664191
 20
99.0656499252
 30
0.0
 10
136.3841880355
 20
99.045429858
 30
0.0
 10
136.3027517968
 20
99.024692582
 30
0.0
 10
136.2596745344
 20
99.0084049097
 30
0.0
 10
136.2484423486
 20
98.9971669544
 30
0.0
  0
ELLIPSE
  5
2D4
100
AcDbEntity
  8
0
100
AcDbEllipse
 62
7
  6
CONTINUOUS
 10
140.7426827692
 20
107.8660192565
 30
0.0
 11
4.5
 21
0.0
 31
0.0
 40
0.0087268678
 41
-3.0892864407
 42
-2.5638513272
  0
ELLIPSE
  5
2D5
100
AcDbEntity
  8
0
100
AcDbEllipse
 62
7
  6
CONTINUOUS
 10
140.7426827692
 20
107.8660192565
 30
0.0
 11
4.5
 21
0.0
 31
0.0
 40
0.0087268678
 41
-0.5778812238
 42
-0.0523063062
  0
ELLIPSE
  5
2D6
100
AcDbEntity
  8
0
100
AcDbEllipse
 62
7
  6
CONTINUOUS
 10
140.7426827692
 20
98.9857358317
 30
0.0
 11
3.0
 21
-0.0
 31
0.0
 40
0.0528966634
 41
0.0523598776
 42
3.089232776
  0
ELLIPSE
  5
2D7
100
AcDbEntity
  8
0
100
AcDbEllipse
 62
7
  6
CONTINUOUS
 10
140.7426827692
 20
78.0594630017
 30
0.0
 11
0.0
 21
-32.176426353
 31
0.0
 40
0.09323596
 41
-1.5184363259
 42
0.0000000004
  0
ELLIPSE
  5
2D8
100
AcDbEntity
  8
0
100
AcDbEllipse
 62
7
  6
CONTINUOUS
 10
140.7426827692
 20
78.0594630017
 30
0.0
 11
0.0
 21
32.176426353
 31
0.0
 40
0.09323596
 41
-3.1415926515
 42
-1.6231563277
  0
ENDSEC
  0
SECTION
  2
OBJECTS
  0
DICTIONARY
  5
C
100
AcDbDictionary
280
0
281
1
  3
ACAD_GROUP
350
D
  3
ACAD_MLINESTYLE
350
17
  3
ACAD_LAYOUT
350
1A
  3
ACAD_PLOTSETTINGS
350
19
  3
ACAD_PLOTSTYLENAME
350
E
  0
DICTIONARY
  5
D
102
{ACAD_REACTORS
330
C
102
}
100
AcDbDictionary
280
0
281
1
  0
ACDBDICTIONARYWDFLT
  5
E
102
{ACAD_REACTORS
330
C
102
}
100
AcDbDictionary
281
1
  3
Normal
350
F
100
AcDbDictionaryWithDefault
340
F
  0
DICTIONARY
  5
17
102
{ACAD_REACTORS
330
C
102
}
100
AcDbDictionary
280
0
281
1
  3
Standard
350
18
  0
DICTIONARY
  5
19
102
{ACAD_REACTORS
330
C
102
}
100
AcDbDictionary
281
1
  0
DICTIONARY
  5
1A
102
{ACAD_REACTORS
330
C
102
}
100
AcDbDictionary
281
1
  3
Model
350
2D9
  3
Layout1
350
2DA
  0
ACDBPLACEHOLDER
  5
F
102
{ACAD_REACTORS
330
E
102
}
  0
MLINESTYLE
  5
18
102
{ACAD_REACTORS
330
17
102
}
100
AcDbMlineStyle
  2
STANDARD
 70
0
  3

 62
256
 51
90.0
 52
90.0
 71
2
 49
0.5
 62
256
  6
BYLAYER
 49
-0.5
 62
256
  6
BYLAYER
  0
LAYOUT
  5
2D9
102
{ACAD_REACTORS
330
1A
102
}
100
AcDbPlotSettings
  1

  2
none_device
  4
ANSI_C_(22.00_x_17.00_Inches)
  6

 40
0.0
 41
0.0
 42
0.0
 43
0.0
 44
558.8
 45
431.8
 46
0.0
 47
0.0
 48
0.0
 49
0.0
140
0.0
141
0.0
142
1.0
143
1.0
 70
1024
 72
1
 73
0
 74
0
  7

 75
0
147
1.0
148
0.0
149
0.0
100
AcDbLayout
  1
Model
 70
0
 71
0
 10
0.0
 20
0.0
 11
558.8
 21
431.8
 12
0.0
 22
0.0
 32
0.0
 14
0.0
 24
0.0
 34
0.0
 15
0.0
 25
0.0
 35
0.0
146
0.0
 13
0.0
 23
0.0
 33
0.0
 16
1.0
 26
0.0
 36
0.0
 17
0.0
 27
1.0
 37
0.0
 76
0
330
216
345
0
346
0
  0
LAYOUT
  5
2DA
102
{ACAD_REACTORS
330
1A
102
}
100
AcDbPlotSettings
  1

  2
none_device
  4
ANSI_C_(22.00_x_17.00_Inches)
  6

 40
0.0
 41
0.0
 42
0.0
 43
0.0
 44
558.8
 45
431.8
 46
0.0
 47
0.0
 48
0.0
 49
0.0
140
0.0
141
0.0
142
1.0
143
1.0
 70
0
 72
1
 73
0
 74
0
  7

 75
0
147
1.0
148
0.0
149
0.0
100
AcDbLayout
  1
Layout1
 70
0
 71
1
 10
0.0
 20
0.0
 11
558.8
 21
431.8
 12
0.0
 22
0.0
 32
0.0
 14
0.0
 24
0.0
 34
0.0
 15
0.0
 25
0.0
 35
0.0
146
0.0
 13
0.0
 23
0.0
 33
0.0
 16
1.0
 26
0.0
 36
0.0
 17
0.0
 27
1.0
 37
0.0
 76
0
330
217
345
0
346
0
  0
ENDSEC
  0
EOF
