999
DXF file: Y:\001_SCHNEIDER_PARIS\78_2020_429_Grey Project M580\TRAVAIL LUCAS SANTANA G2P2\CAD3D\2D views\BMXCPS2000_2D-Views\BMXCPS2000_2D-TOP.dxf
999
Pro/ENGINEER 2018260 by Parametric Technology Corporation
  0
SECTION
  2
HEADER
  9
$ACADVER
  1
AC1027
  9
$DWGCODEPAGE
  3
ANSI_1252
  9
$EXTMAX
 10
558.8
 20
431.8
 30
0.0
  9
$EXTMIN
 10
0.0
 20
0.0
 30
0.0
  9
$LIMMIN
 10
0.0
 20
0.0
  9
$LIMMAX
 10
558.8
 20
431.8
  9
$VIEWCTR
 10
279.4
 20
215.9
  9
$VIEWSIZE
 40
431.8
  9
$CLAYER
  8
0
  9
$LTSCALE
 40
30.734
  9
$CELTYPE
  6
BYLAYER
  9
$DIMSCALE
 40
1.0
  9
$DIMASZ
 40
3.5
  9
$DIMEXO
 40
1.0
  9
$DIMDLI
 40
21.2344
  9
$DIMEXE
 40
3.0
  9
$DIMCEN
 40
5.0292
  9
$DIMLFAC
 40
1.0
  9
$DIMBLK
  1
_FILLED
  9
$DIMALT
 70
0
  9
$DIMALTF
 40
0.0393700787
  9
$DIMTXT
 40
4.0
  9
$DIMTOL
 70
1
  9
$DIMLIM
 70
0
  9
$DIMTFAC
 40
1.0
  9
$DIMTP
 40
0.0001
  9
$DIMTM
 40
0.0001
  9
$DIMGAP
 40
0.625
  9
$DIMDSEP
 70
46
  9
$AUNITS
 70
0
  9
$PDMODE
 70
0
  9
$PDSIZE
 40
0.01
  9
$HANDSEED
  5
2CB
  9
$TILEMODE
 70
1
  9
$MEASUREMENT
 70
1
  9
$INSUNITS
 70
4
  0
ENDSEC
  0
SECTION
  2
CLASSES
  0
CLASS
  1
ACDBDICTIONARYWDFLT
  2
AcDbDictionaryWithDefault
  3
AutoCAD 2000
 90
0
 91
1
280
0
281
0
  0
CLASS
  1
ACDBPLACEHOLDER
  2
AcDbPlaceHolder
  3
AutoCAD 2000
 90
0
 91
1
280
0
281
0
  0
CLASS
  1
LAYOUT
  2
AcDbLayout
  3
AutoCAD 2000
 90
0
 91
0
280
0
281
0
  0
ENDSEC
  0
SECTION
  2
TABLES
  0
TABLE
  2
VPORT
  5
8
100
AcDbSymbolTable
 70
2
  0
VPORT
  5
1F4
100
AcDbSymbolTableRecord
100
AcDbViewportTableRecord
  2
*ACTIVE
 70
0
 10
0.0
 20
0.0
 11
1.0
 21
1.0
 12
279.4
 22
215.9
 13
0.0
 23
0.0
 14
1.0
 24
1.0
 15
0.0
 25
0.0
 16
0.0
 26
0.0
 36
1.0
 17
0.0
 27
0.0
 37
0.0
 40
431.8
 41
1.2941176471
 42
50.0
 43
0.0
 44
0.0
 50
0.0
 51
0.0
 71
0
 72
100
 73
1
 74
1
 75
0
 76
0
 77
0
 78
0
  0
ENDTAB
  0
TABLE
  2
LTYPE
  5
5
100
AcDbSymbolTable
 70
6
  0
LTYPE
  5
14
100
AcDbSymbolTableRecord
100
AcDbLinetypeTableRecord
  2
BYBLOCK
 70
0
  3

 72
65
 73
0
 40
0.0
  0
LTYPE
  5
15
100
AcDbSymbolTableRecord
100
AcDbLinetypeTableRecord
  2
BYLAYER
 70
0
  3

 72
65
 73
0
 40
0.0
  0
LTYPE
  5
16
100
AcDbSymbolTableRecord
100
AcDbLinetypeTableRecord
  2
CONTINUOUS
 70
64
  3
Solid line
 72
65
 73
0
 40
0.0
  0
LTYPE
  5
1F5
100
AcDbSymbolTableRecord
100
AcDbLinetypeTableRecord
  2
CENTER
 70
64
  3
____ _ ____ _ ____ _ ____ _ ____ _ ____ _ ____
 72
65
 73
4
 40
0.6
 49
0.375
 74
0
 49
-0.075
 74
0
 49
0.075
 74
0
 49
-0.075
 74
0
  0
LTYPE
  5
1F6
100
AcDbSymbolTableRecord
100
AcDbLinetypeTableRecord
  2
HIDDEN
 70
64
  3
- - - - - - - - - - - - - - - - - - - -
 72
65
 73
2
 40
0.2
 49
0.1
 74
0
 49
-0.1
 74
0
  0
LTYPE
  5
1F7
100
AcDbSymbolTableRecord
100
AcDbLinetypeTableRecord
  2
PHANTOM
 70
64
  3
_____ _ _ _____ _ _ _____ _ _ _____
 72
65
 73
6
 40
0.8
 49
0.45
 74
0
 49
-0.05
 74
0
 49
0.1
 74
0
 49
-0.05
 74
0
 49
0.1
 74
0
 49
-0.05
 74
0
  0
LTYPE
  5
1F8
100
AcDbSymbolTableRecord
100
AcDbLinetypeTableRecord
  2
DOT
 70
64
  3
. . . . . . . . . . . . . . . . . . . .
 72
65
 73
2
 40
0.2
 49
0.1
 74
0
 49
-0.1
 74
0
  0
LTYPE
  5
1F9
100
AcDbSymbolTableRecord
100
AcDbLinetypeTableRecord
  2
DASHED
 70
64
  3
- - - - - - - - - - - - - - - - - - - -
 72
65
 73
2
 40
0.2
 49
0.1
 74
0
 49
-0.1
 74
0
  0
ENDTAB
  0
TABLE
  2
LAYER
  5
2
100
AcDbSymbolTable
 70
36
  0
LAYER
  5
10
100
AcDbSymbolTableRecord
100
AcDbLayerTableRecord
  2
0
 70
0
 62
7
  6
CONTINUOUS
370
-3
390
F
  0
LAYER
  5
1FA
100
AcDbSymbolTableRecord
100
AcDbLayerTableRecord
  2
DEFAULT_1
 70
0
 62
7
  6
CENTER
370
-3
390
F
  0
LAYER
  5
1FB
100
AcDbSymbolTableRecord
100
AcDbLayerTableRecord
  2
DEFAULT_2
 70
0
 62
8
  6
HIDDEN
370
-3
390
F
  0
LAYER
  5
1FC
100
AcDbSymbolTableRecord
100
AcDbLayerTableRecord
  2
DEFAULT_3
 70
0
 62
7
  6
PHANTOM
370
-3
390
F
  0
LAYER
  5
1FD
100
AcDbSymbolTableRecord
100
AcDbLayerTableRecord
  2
01_ALL_DTM_PLN
 70
0
 62
7
  6
CONTINUOUS
370
-3
390
F
  0
LAYER
  5
1FE
100
AcDbSymbolTableRecord
100
AcDbLayerTableRecord
  2
01__ASM_ALL_DTM_PLN
 70
0
 62
7
  6
CONTINUOUS
370
-3
390
F
  0
LAYER
  5
1FF
100
AcDbSymbolTableRecord
100
AcDbLayerTableRecord
  2
01__ASM_DEF_DTM_PLN
 70
0
 62
7
  6
CONTINUOUS
370
-3
390
F
  0
LAYER
  5
200
100
AcDbSymbolTableRecord
100
AcDbLayerTableRecord
  2
01___PRT_ALL_DTM_PLN
 70
0
 62
7
  6
CONTINUOUS
370
-3
390
F
  0
LAYER
  5
201
100
AcDbSymbolTableRecord
100
AcDbLayerTableRecord
  2
01___PRT_DEF_DTM_PLN
 70
0
 62
7
  6
CONTINUOUS
370
-3
390
F
  0
LAYER
  5
202
100
AcDbSymbolTableRecord
100
AcDbLayerTableRecord
  2
02_ALL_AXES
 70
0
 62
7
  6
CONTINUOUS
370
-3
390
F
  0
LAYER
  5
203
100
AcDbSymbolTableRecord
100
AcDbLayerTableRecord
  2
02__ASM_ALL_AXES
 70
0
 62
7
  6
CONTINUOUS
370
-3
390
F
  0
LAYER
  5
204
100
AcDbSymbolTableRecord
100
AcDbLayerTableRecord
  2
02___PRT_ALL_AXES
 70
0
 62
7
  6
CONTINUOUS
370
-3
390
F
  0
LAYER
  5
205
100
AcDbSymbolTableRecord
100
AcDbLayerTableRecord
  2
03_ALL_CURVES
 70
0
 62
7
  6
CONTINUOUS
370
-3
390
F
  0
LAYER
  5
206
100
AcDbSymbolTableRecord
100
AcDbLayerTableRecord
  2
03__ASM_ALL_CURVES
 70
0
 62
7
  6
CONTINUOUS
370
-3
390
F
  0
LAYER
  5
207
100
AcDbSymbolTableRecord
100
AcDbLayerTableRecord
  2
03___PRT_ALL_CURVES
 70
0
 62
7
  6
CONTINUOUS
370
-3
390
F
  0
LAYER
  5
208
100
AcDbSymbolTableRecord
100
AcDbLayerTableRecord
  2
04_ALL_DTM_PNT
 70
0
 62
7
  6
CONTINUOUS
370
-3
390
F
  0
LAYER
  5
209
100
AcDbSymbolTableRecord
100
AcDbLayerTableRecord
  2
04__ASM_ALL_DTM_PNT
 70
0
 62
7
  6
CONTINUOUS
370
-3
390
F
  0
LAYER
  5
20A
100
AcDbSymbolTableRecord
100
AcDbLayerTableRecord
  2
04___PRT_ALL_DTM_PNT
 70
0
 62
7
  6
CONTINUOUS
370
-3
390
F
  0
LAYER
  5
20B
100
AcDbSymbolTableRecord
100
AcDbLayerTableRecord
  2
05_ALL_DTM_CSYS
 70
0
 62
7
  6
CONTINUOUS
370
-3
390
F
  0
LAYER
  5
20C
100
AcDbSymbolTableRecord
100
AcDbLayerTableRecord
  2
05__ASM_ALL_DTM_CSYS
 70
0
 62
7
  6
CONTINUOUS
370
-3
390
F
  0
LAYER
  5
20D
100
AcDbSymbolTableRecord
100
AcDbLayerTableRecord
  2
05__ASM_DEF_DTM_CSYS
 70
0
 62
7
  6
CONTINUOUS
370
-3
390
F
  0
LAYER
  5
20E
100
AcDbSymbolTableRecord
100
AcDbLayerTableRecord
  2
05___PRT_ALL_DTM_CSYS
 70
0
 62
7
  6
CONTINUOUS
370
-3
390
F
  0
LAYER
  5
20F
100
AcDbSymbolTableRecord
100
AcDbLayerTableRecord
  2
05___PRT_DEF_DTM_CSYS
 70
0
 62
7
  6
CONTINUOUS
370
-3
390
F
  0
LAYER
  5
210
100
AcDbSymbolTableRecord
100
AcDbLayerTableRecord
  2
06_ALL_SURFS
 70
0
 62
7
  6
CONTINUOUS
370
-3
390
F
  0
LAYER
  5
211
100
AcDbSymbolTableRecord
100
AcDbLayerTableRecord
  2
06__ASM_ALL_SURFS
 70
0
 62
7
  6
CONTINUOUS
370
-3
390
F
  0
LAYER
  5
212
100
AcDbSymbolTableRecord
100
AcDbLayerTableRecord
  2
06___PRT_ALL_SURFS
 70
0
 62
7
  6
CONTINUOUS
370
-3
390
F
  0
LAYER
  5
213
100
AcDbSymbolTableRecord
100
AcDbLayerTableRecord
  2
07__ASM_ALL_SKELETONS
 70
0
 62
7
  6
CONTINUOUS
370
-3
390
F
  0
ENDTAB
  0
TABLE
  2
STYLE
  5
3
100
AcDbSymbolTable
 70
1
  0
STYLE
  5
11
100
AcDbSymbolTableRecord
100
AcDbTextStyleTableRecord
  2
STANDARD
 70
0
 40
0.0
 41
0.6
 50
0.0
 71
0
 42
0.2
  3
txt
  4

  0
STYLE
  5
214
100
AcDbSymbolTableRecord
100
AcDbTextStyleTableRecord
  2
TEXTSTYLE_1
 70
0
 40
0.0
 41
0.8
 50
0.0
 71
0
 42
0.2
  3
gdt
  4

  0
ENDTAB
  0
TABLE
  2
VIEW
  5
6
100
AcDbSymbolTable
 70
0
  0
ENDTAB
  0
TABLE
  2
UCS
  5
7
100
AcDbSymbolTable
 70
0
  0
ENDTAB
  0
TABLE
  2
APPID
  5
9
100
AcDbSymbolTable
 70
1
  0
APPID
  5
215
100
AcDbSymbolTableRecord
100
AcDbRegAppTableRecord
  2
ACAD
 70
0
  0
ENDTAB
  0
TABLE
  2
BLOCK_RECORD
  5
1
100
AcDbSymbolTable
 70
0
  0
BLOCK_RECORD
  5
216
100
AcDbSymbolTableRecord
100
AcDbBlockTableRecord
  2
*Model_Space
  0
BLOCK_RECORD
  5
217
100
AcDbSymbolTableRecord
100
AcDbBlockTableRecord
  2
*Paper_Space
  0
BLOCK_RECORD
  5
218
100
AcDbSymbolTableRecord
100
AcDbBlockTableRecord
  2
_FILLED
  0
ENDTAB
  0
TABLE
  2
DIMSTYLE
  5
A
100
AcDbSymbolTable
 70
1
100
AcDbDimStyleTable
 71
0
  0
DIMSTYLE
105
219
100
AcDbSymbolTableRecord
100
AcDbDimStyleTableRecord
  2
STANDARD
 70
0
  3

  4

 40
1.0
 41
3.5
 42
1.0
 43
0.38
 44
3.0
 45
0.0
 46
0.0
 47
0.0001
 48
0.0001
140
4.0
141
0.09
142
0.0
143
25.4
144
1.0
145
0.0
146
1.0
147
0.625
 71
1.0
 72
0.0
 73
0
 74
0
 75
0
 76
0
 77
1
 78
8
 79
2
170
0
171
3
172
0
173
0
174
0
175
0
176
0
177
0
178
0
270
2
179
4
271
4
272
4
273
2
274
2
275
0
280
0
281
0
282
0
283
1
284
8
285
0
286
0
287
3
288
0
340
11
278
46
341
218
342
218
343
218
344
218
  0
ENDTAB
  0
ENDSEC
  0
SECTION
  2
BLOCKS
  0
BLOCK
  5
20
100
AcDbEntity
  8
0
100
AcDbBlockBegin
  2
*Model_Space
 70
0
 10
0.0
 20
0.0
 30
0.0
  3
*Model_Space
  1

  0
ENDBLK
  5
21
100
AcDbEntity
  8
0
100
AcDbBlockEnd
  0
BLOCK
  5
1C
100
AcDbEntity
  8
0
100
AcDbBlockBegin
  2
*Paper_Space
 70
0
 10
0.0
 20
0.0
 30
0.0
  3
*Paper_Space
  1

  0
ENDBLK
  5
1D
100
AcDbEntity
  8
0
100
AcDbBlockEnd
  0
BLOCK
  5
21A
100
AcDbEntity
  8
0
100
AcDbBlockBegin
  2
_FILLED
 70
64
 10
0.0
 20
0.0
  3
_FILLED
  1

  0
SOLID
  5
21B
100
AcDbEntity
  8
0
  6
BYBLOCK
 62
0
100
AcDbTrace
 10
0.0
 20
0.0
 11
-1.0
 21
0.2857142857
 12
-1.0
 22
-0.2857142857
 13
-1.0
 23
-0.2857142857
  0
ENDBLK
  5
21C
100
AcDbEntity
  8
0
  6
BYBLOCK
 62
0
100
AcDbBlockEnd
  0
ENDSEC
  0
SECTION
  2
ENTITIES
  0
LINE
  5
21D
100
AcDbEntity
  8
0
100
AcDbLine
 62
7
  6
CONTINUOUS
 10
182.6280734682
 20
14.2270485979
 11
190.0280734682
 21
14.2270485979
  0
LINE
  5
21E
100
AcDbEntity
  8
0
100
AcDbLine
 62
7
  6
CONTINUOUS
 10
200.8280734682
 20
14.2270485979
 11
208.2280734682
 21
14.2270485979
  0
LINE
  5
21F
100
AcDbEntity
  8
0
100
AcDbLine
 62
7
  6
CONTINUOUS
 10
148.1280734682
 20
15.3268558892
 11
208.7280752727
 21
15.3268558892
  0
LINE
  5
220
100
AcDbEntity
  8
0
100
AcDbLine
 62
7
  6
CONTINUOUS
 10
208.7436709292
 20
15.3268558892
 11
215.7280734682
 21
15.3268558892
  0
LINE
  5
221
100
AcDbEntity
  8
0
100
AcDbLine
 62
7
  6
CONTINUOUS
 10
147.7280734682
 20
16.3268555427
 11
147.4780734682
 21
16.3268555427
  0
LINE
  5
222
100
AcDbEntity
  8
0
100
AcDbLine
 62
9
  6
CONTINUOUS
 10
148.1280734682
 20
16.6669133545
 11
208.7280746907
 21
16.6669133545
  0
LINE
  5
223
100
AcDbEntity
  8
0
100
AcDbLine
 62
9
  6
CONTINUOUS
 10
147.7280734682
 20
17.4518555427
 11
147.4780734682
 21
17.4518555427
  0
LINE
  5
224
100
AcDbEntity
  8
0
100
AcDbLine
 62
7
  6
CONTINUOUS
 10
148.1280734682
 20
21.3268555427
 11
183.4280734682
 21
21.3268555427
  0
LINE
  5
225
100
AcDbEntity
  8
0
100
AcDbLine
 62
7
  6
CONTINUOUS
 10
148.1280734682
 20
22.1034667637
 11
168.7924164142
 21
22.1034667666
  0
LINE
  5
226
100
AcDbEntity
  8
0
100
AcDbLine
 62
7
  6
CONTINUOUS
 10
147.7280734682
 20
22.3248787903
 11
147.4780734682
 21
22.3248787903
  0
LINE
  5
227
100
AcDbEntity
  8
0
100
AcDbLine
 62
7
  6
CONTINUOUS
 10
215.4280734682
 20
22.3268567047
 11
215.7280734682
 21
22.3268573082
  0
LINE
  5
228
100
AcDbEntity
  8
0
100
AcDbLine
 62
9
  6
CONTINUOUS
 10
147.7280734682
 20
22.9916549125
 11
147.4780734682
 21
22.9916549125
  0
LINE
  5
229
100
AcDbEntity
  8
0
100
AcDbLine
 62
7
  6
CONTINUOUS
 10
184.0280734682
 20
23.0245263782
 11
215.4280734682
 21
23.0245263782
  0
LINE
  5
22A
100
AcDbEntity
  8
0
100
AcDbLine
 62
7
  6
CONTINUOUS
 10
168.6450490396
 20
23.1532797228
 11
183.4280734682
 21
23.153279045
  0
LINE
  5
22B
100
AcDbEntity
  8
0
100
AcDbLine
 62
7
  6
CONTINUOUS
 10
198.7280734682
 20
23.2971579667
 11
215.7280734682
 21
23.2971579667
  0
LINE
  5
22C
100
AcDbEntity
  8
0
100
AcDbLine
 62
9
  6
CONTINUOUS
 10
147.4780734682
 20
23.2980011376
 11
147.7280734682
 21
23.2980011376
  0
LINE
  5
22D
100
AcDbEntity
  8
0
100
AcDbLine
 62
7
  6
CONTINUOUS
 10
148.1280734682
 20
23.6268555427
 11
167.7280738977
 21
23.6268555656
  0
LINE
  5
22E
100
AcDbEntity
  8
0
100
AcDbLine
 62
7
  6
CONTINUOUS
 10
198.7280734682
 20
24.1348663499
 11
198.3280734682
 21
24.1348663499
  0
LINE
  5
22F
100
AcDbEntity
  8
0
100
AcDbLine
 62
7
  6
CONTINUOUS
 10
184.0280734682
 20
24.2602416723
 11
198.3280734682
 21
24.2602416723
  0
LINE
  5
230
100
AcDbEntity
  8
0
100
AcDbLine
 62
7
  6
CONTINUOUS
 10
147.7280734682
 20
24.4268555427
 11
147.4780734682
 21
24.4268555427
  0
LINE
  5
231
100
AcDbEntity
  8
0
100
AcDbLine
 62
7
  6
CONTINUOUS
 10
167.7281291407
 20
24.5095579008
 11
183.4280734682
 21
24.5095578779
  0
LINE
  5
232
100
AcDbEntity
  8
0
100
AcDbLine
 62
7
  6
CONTINUOUS
 10
198.7280734682
 20
24.5095578779
 11
215.7280734682
 21
24.5095578779
  0
LINE
  5
233
100
AcDbEntity
  8
0
100
AcDbLine
 62
7
  6
CONTINUOUS
 10
184.0280734682
 20
24.9268555427
 11
198.3280734682
 21
24.9268555427
  0
LINE
  5
234
100
AcDbEntity
  8
0
100
AcDbLine
 62
7
  6
CONTINUOUS
 10
198.7280734682
 20
25.3268555427
 11
183.4280734682
 21
25.3268555427
  0
LINE
  5
235
100
AcDbEntity
  8
0
100
AcDbLine
 62
7
  6
CONTINUOUS
 10
208.7298449925
 20
21.3269003643
 11
208.7292444478
 21
21.3269562993
  0
LINE
  5
236
100
AcDbEntity
  8
0
100
AcDbLine
 62
7
  6
CONTINUOUS
 10
147.4780734682
 20
16.3268555427
 11
147.4780734682
 21
108.3268555427
  0
LINE
  5
237
100
AcDbEntity
  8
0
100
AcDbLine
 62
7
  6
CONTINUOUS
 10
147.7280734682
 20
16.3268555427
 11
147.7280734682
 21
108.3268555427
  0
LINE
  5
238
100
AcDbEntity
  8
0
100
AcDbLine
 62
7
  6
CONTINUOUS
 10
148.1280734682
 20
108.3268555427
 11
148.1280734682
 21
15.3268558892
  0
LINE
  5
239
100
AcDbEntity
  8
0
100
AcDbLine
 62
7
  6
CONTINUOUS
 10
154.1280734682
 20
114.3268555427
 11
154.1280734682
 21
108.3268555427
  0
LINE
  5
23A
100
AcDbEntity
  8
0
100
AcDbLine
 62
7
  6
CONTINUOUS
 10
155.4780734682
 20
108.3268555427
 11
155.4780734682
 21
114.2393668792
  0
LINE
  5
23B
100
AcDbEntity
  8
0
100
AcDbLine
 62
7
  6
CONTINUOUS
 10
208.8412663592
 20
109.6047509523
 11
205.635843279
 21
108.3268555427
  0
LINE
  5
23C
100
AcDbEntity
  8
0
100
AcDbLine
 62
7
  6
CONTINUOUS
 10
206.1759127261
 20
108.3268555427
 11
208.8711821696
 21
109.4013696906
  0
LINE
  5
23D
100
AcDbEntity
  8
0
100
AcDbLine
 62
7
  6
CONTINUOUS
 10
215.7280734682
 20
41.3268555427
 11
148.1280734682
 21
41.3268555427
  0
LINE
  5
23E
100
AcDbEntity
  8
0
100
AcDbLine
 62
7
  6
CONTINUOUS
 10
182.6280734682
 20
14.2270485979
 11
181.9454344598
 21
15.3268558892
  0
LINE
  5
23F
100
AcDbEntity
  8
0
100
AcDbLine
 62
7
  6
CONTINUOUS
 10
157.2780734682
 20
108.3268555427
 11
157.2780734682
 21
114.2393668792
  0
LINE
  5
240
100
AcDbEntity
  8
0
100
AcDbLine
 62
7
  6
CONTINUOUS
 10
158.603141487
 20
114.3268555427
 11
159.1280734682
 21
108.3268555427
  0
LINE
  5
241
100
AcDbEntity
  8
0
100
AcDbLine
 62
7
  6
CONTINUOUS
 10
201.4780734682
 20
117.0268555427
 11
201.2180734682
 21
116.7668555427
  0
LINE
  5
242
100
AcDbEntity
  8
0
100
AcDbLine
 62
7
  6
CONTINUOUS
 10
196.6222064523
 20
94.3268555427
 11
196.7321848639
 21
94.363705729
  0
LINE
  5
243
100
AcDbEntity
  8
0
100
AcDbLine
 62
7
  6
CONTINUOUS
 10
195.1197027416
 20
94.3268555427
 11
195.2341955199
 21
94.3649887913
  0
LINE
  5
244
100
AcDbEntity
  8
0
100
AcDbLine
 62
7
  6
CONTINUOUS
 10
167.7280739088
 20
23.6268555427
 11
167.7280739088
 21
24.5095578779
  0
LINE
  5
245
100
AcDbEntity
  8
0
100
AcDbLine
 62
7
  6
CONTINUOUS
 10
200.8280734682
 20
14.2270485979
 11
200.1454344598
 21
15.3268558892
  0
LINE
  5
246
100
AcDbEntity
  8
0
100
AcDbLine
 62
7
  6
CONTINUOUS
 10
199.1280734682
 20
126.6268555427
 11
197.9780734682
 21
124.2268555427
  0
LINE
  5
247
100
AcDbEntity
  8
0
100
AcDbLine
 62
7
  6
CONTINUOUS
 10
184.2530054493
 20
114.3268555427
 11
183.8583096014
 21
109.8154613575
  0
LINE
  5
248
100
AcDbEntity
  8
0
100
AcDbLine
 62
7
  6
CONTINUOUS
 10
185.7372760325
 20
108.9608466344
 11
185.7428070174
 21
108.3268555427
  0
LINE
  5
249
100
AcDbEntity
  8
0
100
AcDbLine
 62
7
  6
CONTINUOUS
 10
185.8120530286
 20
109.0920485979
 11
185.7666982586
 21
114.2891904696
  0
LINE
  5
24A
100
AcDbEntity
  8
0
100
AcDbLine
 62
7
  6
CONTINUOUS
 10
182.5280734682
 20
108.3268555427
 11
182.5280734682
 21
109.0920485979
  0
LINE
  5
24B
100
AcDbEntity
  8
0
100
AcDbLine
 62
7
  6
CONTINUOUS
 10
183.4280734682
 20
21.3313047443
 11
183.4280734682
 21
25.3268555427
  0
LINE
  5
24C
100
AcDbEntity
  8
0
100
AcDbLine
 62
7
  6
CONTINUOUS
 10
183.7280734682
 20
108.3268555427
 11
183.7280734682
 21
109.8268555427
  0
LINE
  5
24D
100
AcDbEntity
  8
0
100
AcDbLine
 62
7
  6
CONTINUOUS
 10
184.0280734682
 20
22.1289107253
 11
184.0280734682
 21
24.9268555427
  0
LINE
  5
24E
100
AcDbEntity
  8
0
100
AcDbLine
 62
7
  6
CONTINUOUS
 10
185.7280734682
 20
25.3268555427
 11
185.7280734682
 21
24.9268555427
  0
LINE
  5
24F
100
AcDbEntity
  8
0
100
AcDbLine
 62
7
  6
CONTINUOUS
 10
184.8364343773
 20
24.9268555427
 11
184.8434164033
 21
25.3268555427
  0
LINE
  5
250
100
AcDbEntity
  8
0
100
AcDbLine
 62
7
  6
CONTINUOUS
 10
197.6981612677
 20
101.0956234749
 11
197.7051910413
 21
101.1113567777
  0
LINE
  5
251
100
AcDbEntity
  8
0
100
AcDbLine
 62
7
  6
CONTINUOUS
 10
187.1280734682
 20
25.3268555427
 11
187.1280734682
 21
24.9268555427
  0
LINE
  5
252
100
AcDbEntity
  8
0
100
AcDbLine
 62
9
  6
CONTINUOUS
 10
188.1939477494
 20
108.3268555427
 11
188.1939477494
 21
109.0920485979
  0
LINE
  5
253
100
AcDbEntity
  8
0
100
AcDbLine
 62
7
  6
CONTINUOUS
 10
188.6266651572
 20
106.3268555427
 11
188.6266651572
 21
108.3268555427
  0
LINE
  5
254
100
AcDbEntity
  8
0
100
AcDbLine
 62
7
  6
CONTINUOUS
 10
189.5280734682
 20
109.0920485979
 11
189.5280734682
 21
108.3268555427
  0
LINE
  5
255
100
AcDbEntity
  8
0
100
AcDbLine
 62
7
  6
CONTINUOUS
 10
190.0280734682
 20
14.2270485979
 11
190.0280734682
 21
15.3268558892
  0
LINE
  5
256
100
AcDbEntity
  8
0
100
AcDbLine
 62
7
  6
CONTINUOUS
 10
214.1764302206
 20
109.8268555427
 11
213.6688651402
 21
108.9608500126
  0
LINE
  5
257
100
AcDbEntity
  8
0
100
AcDbLine
 62
7
  6
CONTINUOUS
 10
188.6614083947
 20
109.0888408197
 11
188.203141487
 21
114.3268555427
  0
LINE
  5
258
100
AcDbEntity
  8
0
100
AcDbLine
 62
7
  6
CONTINUOUS
 10
189.2455046167
 20
109.2841821122
 11
189.2280734682
 21
109.4834210518
  0
LINE
  5
259
100
AcDbEntity
  8
0
100
AcDbLine
 62
7
  6
CONTINUOUS
 10
195.1197027416
 20
103.3268555427
 11
195.1197027416
 21
94.3268555427
  0
LINE
  5
25A
100
AcDbEntity
  8
0
100
AcDbLine
 62
9
  6
CONTINUOUS
 10
195.2342405618
 20
94.3650037931
 11
195.2342405618
 21
103.3268555427
  0
LINE
  5
25B
100
AcDbEntity
  8
0
100
AcDbLine
 62
7
  6
CONTINUOUS
 10
196.6222064523
 20
94.3268555427
 11
196.7321848639
 21
71.820155894
  0
LINE
  5
25C
100
AcDbEntity
  8
0
100
AcDbLine
 62
7
  6
CONTINUOUS
 10
195.7280734682
 20
103.3268555427
 11
195.7280734682
 21
108.3268555427
  0
LINE
  5
25D
100
AcDbEntity
  8
0
100
AcDbLine
 62
7
  6
CONTINUOUS
 10
195.9780734682
 20
101.7874476736
 11
195.9780734682
 21
103.3268555427
  0
LINE
  5
25E
100
AcDbEntity
  8
0
100
AcDbLine
 62
9
  6
CONTINUOUS
 10
196.7321848639
 20
71.8201558941
 11
196.7321848639
 21
94.363705729
  0
LINE
  5
25F
100
AcDbEntity
  8
0
100
AcDbLine
 62
7
  6
CONTINUOUS
 10
197.7280734682
 20
103.3268555427
 11
197.7280734682
 21
108.3268555427
  0
LINE
  5
260
100
AcDbEntity
  8
0
100
AcDbLine
 62
7
  6
CONTINUOUS
 10
197.9780734682
 20
124.2268555427
 11
197.9780734682
 21
117.0268555427
  0
LINE
  5
261
100
AcDbEntity
  8
0
100
AcDbLine
 62
7
  6
CONTINUOUS
 10
198.2380734682
 20
116.7668555427
 11
198.2380734682
 21
108.3268555427
  0
LINE
  5
262
100
AcDbEntity
  8
0
100
AcDbLine
 62
7
  6
CONTINUOUS
 10
198.3280734682
 20
23.0245263782
 11
198.3280734682
 21
24.9268555427
  0
LINE
  5
263
100
AcDbEntity
  8
0
100
AcDbLine
 62
7
  6
CONTINUOUS
 10
198.5030734682
 20
103.3268555427
 11
198.5030734682
 21
108.3268555427
  0
LINE
  5
264
100
AcDbEntity
  8
0
100
AcDbLine
 62
7
  6
CONTINUOUS
 10
198.7280734682
 20
25.3268555427
 11
198.7280734682
 21
23.2971579667
  0
LINE
  5
265
100
AcDbEntity
  8
0
100
AcDbLine
 62
7
  6
CONTINUOUS
 10
199.1280734682
 20
102.3268555427
 11
199.1280734682
 21
100.867037568
  0
LINE
  5
266
100
AcDbEntity
  8
0
100
AcDbLine
 62
7
  6
CONTINUOUS
 10
200.3280734682
 20
100.867037568
 11
200.3280734682
 21
102.3268555427
  0
LINE
  5
267
100
AcDbEntity
  8
0
100
AcDbLine
 62
7
  6
CONTINUOUS
 10
200.9530734682
 20
108.3268555427
 11
200.9530734682
 21
103.3268555427
  0
LINE
  5
268
100
AcDbEntity
  8
0
100
AcDbLine
 62
7
  6
CONTINUOUS
 10
201.2180734682
 20
108.3268555427
 11
201.2180734682
 21
116.7668555427
  0
LINE
  5
269
100
AcDbEntity
  8
0
100
AcDbLine
 62
7
  6
CONTINUOUS
 10
201.4780734682
 20
124.2268555427
 11
201.4780734682
 21
117.0268555427
  0
LINE
  5
26A
100
AcDbEntity
  8
0
100
AcDbLine
 62
7
  6
CONTINUOUS
 10
201.7280734682
 20
103.3268555427
 11
201.7280734682
 21
108.3268555427
  0
LINE
  5
26B
100
AcDbEntity
  8
0
100
AcDbLine
 62
9
  6
CONTINUOUS
 10
202.7239620737
 20
71.820156147
 11
202.7239620725
 21
94.363705729
  0
LINE
  5
26C
100
AcDbEntity
  8
0
100
AcDbLine
 62
9
  6
CONTINUOUS
 10
202.9939477494
 20
109.0920485979
 11
202.9939477494
 21
108.3268555427
  0
LINE
  5
26D
100
AcDbEntity
  8
0
100
AcDbLine
 62
7
  6
CONTINUOUS
 10
203.4780734682
 20
103.3268555427
 11
203.4780734682
 21
101.7874476736
  0
LINE
  5
26E
100
AcDbEntity
  8
0
100
AcDbLine
 62
7
  6
CONTINUOUS
 10
203.7280734682
 20
103.3268555427
 11
203.7280734682
 21
108.3268555427
  0
LINE
  5
26F
100
AcDbEntity
  8
0
100
AcDbLine
 62
7
  6
CONTINUOUS
 10
202.7239620737
 20
71.8201561464
 11
202.833940484
 21
94.3268555427
  0
LINE
  5
270
100
AcDbEntity
  8
0
100
AcDbLine
 62
7
  6
CONTINUOUS
 10
208.7278764138
 20
21.245888409
 11
208.7280676228
 21
21.2271810656
  0
LINE
  5
271
100
AcDbEntity
  8
0
100
AcDbLine
 62
9
  6
CONTINUOUS
 10
204.2219063746
 20
103.3268555427
 11
204.2219063746
 21
94.3650037931
  0
LINE
  5
272
100
AcDbEntity
  8
0
100
AcDbLine
 62
7
  6
CONTINUOUS
 10
204.3364441948
 20
94.3268555427
 11
204.3364441948
 21
103.3268555427
  0
LINE
  5
273
100
AcDbEntity
  8
0
100
AcDbLine
 62
9
  6
CONTINUOUS
 10
206.3939477494
 20
108.3268555427
 11
206.3939477494
 21
108.4137788437
  0
LINE
  5
274
100
AcDbEntity
  8
0
100
AcDbLine
 62
9
  6
CONTINUOUS
 10
206.3939477494
 20
108.6290865426
 11
206.3939477494
 21
109.0920485979
  0
LINE
  5
275
100
AcDbEntity
  8
0
100
AcDbLine
 62
7
  6
CONTINUOUS
 10
207.7280734682
 20
108.9456503282
 11
207.7280734682
 21
108.3268555427
  0
LINE
  5
276
100
AcDbEntity
  8
0
100
AcDbLine
 62
7
  6
CONTINUOUS
 10
208.2280734682
 20
14.2270485979
 11
208.2280734682
 21
15.3268558892
  0
LINE
  5
277
100
AcDbEntity
  8
0
100
AcDbLine
 62
7
  6
CONTINUOUS
 10
210.2280734682
 20
109.4834210518
 11
210.2106423197
 21
109.2841821122
  0
LINE
  5
278
100
AcDbEntity
  8
0
100
AcDbLine
 62
7
  6
CONTINUOUS
 10
210.7280734682
 20
108.3268555427
 11
211.2530054493
 21
114.3268555427
  0
LINE
  5
279
100
AcDbEntity
  8
0
100
AcDbLine
 62
7
  6
CONTINUOUS
 10
195.1197027416
 20
94.3268555427
 11
196.6222064523
 21
94.3268555427
  0
LINE
  5
27A
100
AcDbEntity
  8
0
100
AcDbLine
 62
7
  6
CONTINUOUS
 10
202.833940484
 20
94.3268555427
 11
204.3364441948
 21
94.3268555427
  0
LINE
  5
27B
100
AcDbEntity
  8
0
100
AcDbLine
 62
7
  6
CONTINUOUS
 10
185.7372817962
 20
108.9608500126
 11
185.2297167157
 21
109.8268555427
  0
LINE
  5
27C
100
AcDbEntity
  8
0
100
AcDbLine
 62
7
  6
CONTINUOUS
 10
208.7280752727
 20
15.3268558892
 11
208.7280656679
 21
21.2271810656
  0
LINE
  5
27D
100
AcDbEntity
  8
0
100
AcDbLine
 62
7
  6
CONTINUOUS
 10
210.8294817792
 20
108.3268555427
 11
210.8294817792
 21
106.3268555427
  0
LINE
  5
27E
100
AcDbEntity
  8
0
100
AcDbLine
 62
7
  6
CONTINUOUS
 10
204.3364441948
 20
94.3268555427
 11
204.2219063746
 21
94.3650037931
  0
LINE
  5
27F
100
AcDbEntity
  8
0
100
AcDbLine
 62
7
  6
CONTINUOUS
 10
202.833940484
 20
94.3268555427
 11
202.7239620724
 21
94.363705729
  0
LINE
  5
280
100
AcDbEntity
  8
0
100
AcDbLine
 62
7
  6
CONTINUOUS
 10
201.7509558951
 20
101.1113567777
 11
201.7579856687
 21
101.0956234749
  0
LINE
  5
281
100
AcDbEntity
  8
0
100
AcDbLine
 62
7
  6
CONTINUOUS
 10
215.4280734682
 20
22.1289107253
 11
215.4280734682
 21
23.2971579667
  0
LINE
  5
282
100
AcDbEntity
  8
0
100
AcDbLine
 62
7
  6
CONTINUOUS
 10
215.7280734682
 20
15.3268558892
 11
215.7280734682
 21
22.3112584281
  0
LINE
  5
283
100
AcDbEntity
  8
0
100
AcDbLine
 62
7
  6
CONTINUOUS
 10
215.7280734682
 20
22.3268573082
 11
215.7280734682
 21
114.3268555427
  0
LINE
  5
284
100
AcDbEntity
  8
0
100
AcDbLine
 62
7
  6
CONTINUOUS
 10
213.5874161692
 20
108.3268555427
 11
213.6394486778
 21
114.2891904696
  0
LINE
  5
285
100
AcDbEntity
  8
0
100
AcDbLine
 62
7
  6
CONTINUOUS
 10
213.663339919
 20
108.3268555427
 11
213.6688709039
 21
108.9608466344
  0
LINE
  5
286
100
AcDbEntity
  8
0
100
AcDbLine
 62
7
  6
CONTINUOUS
 10
195.9780734682
 20
101.7874476736
 11
199.1280734682
 21
101.7874476736
  0
LINE
  5
287
100
AcDbEntity
  8
0
100
AcDbLine
 62
7
  6
CONTINUOUS
 10
200.3280734682
 20
101.7874476736
 11
203.4780734682
 21
101.7874476736
  0
LINE
  5
288
100
AcDbEntity
  8
0
100
AcDbLine
 62
7
  6
CONTINUOUS
 10
199.1280734682
 20
102.3268555427
 11
200.3280734682
 21
102.3268555427
  0
LINE
  5
289
100
AcDbEntity
  8
0
100
AcDbLine
 62
7
  6
CONTINUOUS
 10
195.1197027416
 20
103.3268555427
 11
204.3364441948
 21
103.3268555427
  0
LINE
  5
28A
100
AcDbEntity
  8
0
100
AcDbLine
 62
7
  6
CONTINUOUS
 10
190.5849647668
 20
109.4013696906
 11
189.2455046167
 21
109.2841821122
  0
LINE
  5
28B
100
AcDbEntity
  8
0
100
AcDbLine
 62
7
  6
CONTINUOUS
 10
189.2280734682
 20
109.4834210518
 11
190.6148805772
 21
109.6047509523
  0
LINE
  5
28C
100
AcDbEntity
  8
0
100
AcDbLine
 62
7
  6
CONTINUOUS
 10
188.6266651572
 20
106.3268555427
 11
195.7280734682
 21
106.3268555427
  0
LINE
  5
28D
100
AcDbEntity
  8
0
100
AcDbLine
 62
7
  6
CONTINUOUS
 10
203.7280734682
 20
106.3268555427
 11
210.8294817792
 21
106.3268555427
  0
LINE
  5
28E
100
AcDbEntity
  8
0
100
AcDbLine
 62
7
  6
CONTINUOUS
 10
147.7280734682
 20
108.3268555427
 11
147.4780734682
 21
108.3268555427
  0
LINE
  5
28F
100
AcDbEntity
  8
0
100
AcDbLine
 62
7
  6
CONTINUOUS
 10
148.1280734682
 20
108.3268555427
 11
183.7280734682
 21
108.3268555427
  0
LINE
  5
290
100
AcDbEntity
  8
0
100
AcDbLine
 62
7
  6
CONTINUOUS
 10
185.7428070174
 20
108.3268555427
 11
198.5030734682
 21
108.3268555427
  0
LINE
  5
291
100
AcDbEntity
  8
0
100
AcDbLine
 62
7
  6
CONTINUOUS
 10
200.9530734682
 20
108.3268555427
 11
213.663339919
 21
108.3268555427
  0
LINE
  5
292
100
AcDbEntity
  8
0
100
AcDbLine
 62
9
  6
CONTINUOUS
 10
213.6688728192
 20
108.8268555427
 11
213.5917796031
 21
108.8268555427
  0
LINE
  5
293
100
AcDbEntity
  8
0
100
AcDbLine
 62
9
  6
CONTINUOUS
 10
155.4780734682
 20
108.8268555427
 11
154.1280734682
 21
108.8268555427
  0
LINE
  5
294
100
AcDbEntity
  8
0
100
AcDbLine
 62
7
  6
CONTINUOUS
 10
183.7280734682
 20
108.9608301389
 11
185.7372760325
 21
108.9608466344
  0
LINE
  5
295
100
AcDbEntity
  8
0
100
AcDbLine
 62
7
  6
CONTINUOUS
 10
213.6688709039
 20
108.9608466344
 11
215.7280734682
 21
108.9608301389
  0
LINE
  5
296
100
AcDbEntity
  8
0
100
AcDbLine
 62
7
  6
CONTINUOUS
 10
207.5552237397
 20
109.0920485979
 11
201.2180734682
 21
109.0920485979
  0
LINE
  5
297
100
AcDbEntity
  8
0
100
AcDbLine
 62
7
  6
CONTINUOUS
 10
189.5280734682
 20
109.0920485979
 11
185.6603864206
 21
109.0920485979
  0
LINE
  5
298
100
AcDbEntity
  8
0
100
AcDbLine
 62
7
  6
CONTINUOUS
 10
183.7280734682
 20
109.0920485979
 11
182.5280734682
 21
109.0920485979
  0
LINE
  5
299
100
AcDbEntity
  8
0
100
AcDbLine
 62
7
  6
CONTINUOUS
 10
183.7280734682
 20
109.8268555427
 11
185.2297167157
 21
109.8268555427
  0
LINE
  5
29A
100
AcDbEntity
  8
0
100
AcDbLine
 62
7
  6
CONTINUOUS
 10
214.1764302206
 20
109.8268555427
 11
215.7280734682
 21
109.8268555427
  0
LINE
  5
29B
100
AcDbEntity
  8
0
100
AcDbLine
 62
9
  6
CONTINUOUS
 10
157.2780734682
 20
108.8268555427
 11
159.0843398374
 21
108.8267332296
  0
LINE
  5
29C
100
AcDbEntity
  8
0
100
AcDbLine
 62
7
  6
CONTINUOUS
 10
193.2802342103
 20
108.3268555427
 11
190.5849647668
 21
109.4013696906
  0
LINE
  5
29D
100
AcDbEntity
  8
0
100
AcDbLine
 62
7
  6
CONTINUOUS
 10
190.6148805772
 20
109.6047509523
 11
193.8203036573
 21
108.3268555427
  0
LINE
  5
29E
100
AcDbEntity
  8
0
100
AcDbLine
 62
7
  6
CONTINUOUS
 10
158.666012375
 20
113.608228336
 11
157.2780734682
 21
113.6082300597
  0
LINE
  5
29F
100
AcDbEntity
  8
0
100
AcDbLine
 62
7
  6
CONTINUOUS
 10
154.1280734682
 20
113.6082300597
 11
155.4780734682
 21
113.6082300597
  0
LINE
  5
2A0
100
AcDbEntity
  8
0
100
AcDbLine
 62
7
  6
CONTINUOUS
 10
213.6335060263
 20
113.6082300597
 11
215.7280734682
 21
113.6082300597
  0
LINE
  5
2A1
100
AcDbEntity
  8
0
100
AcDbLine
 62
7
  6
CONTINUOUS
 10
185.7713318061
 20
113.7582385172
 11
184.2032587263
 21
113.7582364648
  0
LINE
  5
2A2
100
AcDbEntity
  8
0
100
AcDbLine
 62
7
  6
CONTINUOUS
 10
157.2780734682
 20
114.2393668792
 11
155.4780734682
 21
114.2393668792
  0
LINE
  5
2A3
100
AcDbEntity
  8
0
100
AcDbLine
 62
7
  6
CONTINUOUS
 10
213.6394486778
 20
114.2891904696
 11
211.2497101824
 21
114.2891904696
  0
LINE
  5
2A4
100
AcDbEntity
  8
0
100
AcDbLine
 62
7
  6
CONTINUOUS
 10
188.2064367539
 20
114.2891904696
 11
185.7666982586
 21
114.2891904696
  0
LINE
  5
2A5
100
AcDbEntity
  8
0
100
AcDbLine
 62
7
  6
CONTINUOUS
 10
154.1280734682
 20
114.3268555427
 11
158.603141487
 21
114.3268555427
  0
LINE
  5
2A6
100
AcDbEntity
  8
0
100
AcDbLine
 62
7
  6
CONTINUOUS
 10
184.2530054493
 20
114.3268555427
 11
188.203141487
 21
114.3268555427
  0
LINE
  5
2A7
100
AcDbEntity
  8
0
100
AcDbLine
 62
7
  6
CONTINUOUS
 10
211.2530054494
 20
114.3268555427
 11
215.7280734682
 21
114.3268555427
  0
LINE
  5
2A8
100
AcDbEntity
  8
0
100
AcDbLine
 62
7
  6
CONTINUOUS
 10
210.2106423197
 20
109.2841821122
 11
208.8711821696
 21
109.4013696906
  0
LINE
  5
2A9
100
AcDbEntity
  8
0
100
AcDbLine
 62
7
  6
CONTINUOUS
 10
208.8412663592
 20
109.6047509523
 11
210.2280734682
 21
109.4834210518
  0
LINE
  5
2AA
100
AcDbEntity
  8
0
100
AcDbLine
 62
7
  6
CONTINUOUS
 10
200.3280734682
 20
126.6268555427
 11
201.4780734682
 21
124.2268555427
  0
LINE
  5
2AB
100
AcDbEntity
  8
0
100
AcDbLine
 62
7
  6
CONTINUOUS
 10
201.2180734682
 20
116.7668555427
 11
198.2380734682
 21
116.7668555427
  0
LINE
  5
2AC
100
AcDbEntity
  8
0
100
AcDbLine
 62
7
  6
CONTINUOUS
 10
197.9780734682
 20
117.0268555427
 11
201.4780734682
 21
117.0268555427
  0
LINE
  5
2AD
100
AcDbEntity
  8
0
100
AcDbLine
 62
7
  6
CONTINUOUS
 10
197.9780734682
 20
117.0268555427
 11
198.2380734682
 21
116.7668555427
  0
LINE
  5
2AE
100
AcDbEntity
  8
0
100
AcDbLine
 62
7
  6
CONTINUOUS
 10
201.4780734682
 20
124.2268555427
 11
197.9780734682
 21
124.2268555427
  0
LINE
  5
2AF
100
AcDbEntity
  8
0
100
AcDbLine
 62
7
  6
CONTINUOUS
 10
198.2780734682
 20
124.8529424992
 11
201.1780734682
 21
124.8529424992
  0
LINE
  5
2B0
100
AcDbEntity
  8
0
100
AcDbLine
 62
7
  6
CONTINUOUS
 10
200.3280734682
 20
126.6268555427
 11
199.1280734682
 21
126.6268555427
  0
ARC
  5
2B1
100
AcDbEntity
  8
0
100
AcDbCircle
 62
7
  6
CONTINUOUS
 10
199.7280734682
 20
108.6268555427
 40
7.8
100
AcDbArc
 50
241.2643462551
 51
254.9153907971
  0
ARC
  5
2B2
100
AcDbEntity
  8
0
100
AcDbCircle
 62
7
  6
CONTINUOUS
 10
199.7280734682
 20
108.6268555427
 40
7.8
100
AcDbArc
 50
285.0846092029
 51
298.7356537449
  0
ARC
  5
2B3
100
AcDbEntity
  8
0
100
AcDbCircle
 62
7
  6
CONTINUOUS
 10
199.7280734682
 20
108.6268555427
 40
7.7829798278
100
AcDbArc
 50
254.9352160121
 51
265.5786072777
  0
ARC
  5
2B4
100
AcDbEntity
  8
0
100
AcDbCircle
 62
7
  6
CONTINUOUS
 10
199.7280734682
 20
108.6268555427
 40
7.7829798278
100
AcDbArc
 50
274.4213927223
 51
285.0647839879
  0
ARC
  5
2B5
100
AcDbEntity
  8
0
100
AcDbCircle
 62
7
  6
CONTINUOUS
 10
170.8163114545
 20
30.159486206
 40
7.3349423158
100
AcDbArc
 50
252.7813965548
 51
254.9807603366
  0
ARC
  5
2B6
100
AcDbEntity
  8
0
100
AcDbCircle
 62
7
  6
CONTINUOUS
 10
215.7392508661
 20
15.1780875157
 40
7.1487783712
100
AcDbArc
 50
90.0895842809
 51
92.5027964764
  0
ARC
  5
2B7
100
AcDbEntity
  8
0
100
AcDbCircle
 62
7
  6
CONTINUOUS
 10
215.8219582637
 20
15.3177193432
 40
7.0938916534
100
AcDbArc
 50
169.1362994618
 51
179.9262061373
  0
ARC
  5
2B8
100
AcDbEntity
  8
0
100
AcDbCircle
 62
7
  6
CONTINUOUS
 10
215.7283375663
 20
15.3267008067
 40
7.0002470672
100
AcDbArc
 50
103.0516490065
 51
169.0640726235
  0
ARC
  5
2B9
100
AcDbEntity
  8
0
100
AcDbCircle
 62
7
  6
CONTINUOUS
 10
215.7280734682
 20
15.3268558892
 40
6.9844025389
100
AcDbArc
 50
90.0
 51
92.5004629098
  0
ARC
  5
2BA
100
AcDbEntity
  8
0
100
AcDbCircle
 62
7
  6
CONTINUOUS
 10
215.7280734682
 20
15.3268558892
 40
6.9844025389
100
AcDbArc
 50
102.6229008691
 51
180.0
  0
SPLINE
  5
2BB
100
AcDbEntity
  8
0
100
AcDbSpline
 62
7
  6
CONTINUOUS
 70
0
 71
3
 72
9
 73
5
 74
0
 42
0.0000001
 43
0.0000001
 44
0.0000000001
 40
0.0
 40
0.0
 40
0.0
 40
0.0
 40
0.5
 40
1.0
 40
1.0
 40
1.0
 40
1.0
 10
215.4280734682
 20
22.1289107253
 30
0.0
 10
210.1947408097
 20
22.1261659908
 30
0.0
 10
199.7280734682
 20
22.1275385114
 30
0.0
 10
189.2614061268
 20
22.1261659908
 30
0.0
 10
184.0280734682
 20
22.1289107253
 30
0.0
  0
SPLINE
  5
2BC
100
AcDbEntity
  8
0
100
AcDbSpline
 62
7
  6
CONTINUOUS
 70
0
 71
3
 72
9
 73
5
 74
0
 42
0.0000001
 43
0.0000001
 44
0.0000000001
 40
0.0
 40
0.0
 40
0.0
 40
0.0
 40
0.4999999886
 40
1.0
 40
1.0
 40
1.0
 40
1.0
 10
194.7100617215
 20
21.3268555427
 30
0.0
 10
196.3270762381
 20
21.171799042
 30
0.0
 10
199.5781126402
 20
21.0298962645
 30
0.0
 10
202.829151555
 20
21.1717859388
 30
0.0
 10
204.4461648895
 20
21.3268555427
 30
0.0
  0
LINE
  5
2BD
100
AcDbEntity
  8
0
100
AcDbLine
 62
7
  6
CONTINUOUS
 10
204.4461648895
 20
21.3268555427
 11
208.7292444478
 21
21.3269562993
  0
SPLINE
  5
2BE
100
AcDbEntity
  8
0
100
AcDbSpline
 62
7
  6
CONTINUOUS
 70
0
 71
3
 72
13
 73
9
 74
0
 42
0.0000001
 43
0.0000001
 44
0.0000000001
 40
0.0
 40
0.0
 40
0.0
 40
0.0
 40
0.3153162806
 40
0.596891049
 40
0.7199994003
 40
0.8290244582
 40
0.9226612629
 40
1.0
 40
1.0
 40
1.0
 40
1.0
 10
183.4280734682
 20
22.3313378302
 30
0.0
 10
181.898056017
 20
22.3341830326
 30
0.0
 10
179.0018272435
 20
22.3443979702
 30
0.0
 10
175.5081342187
 20
22.4043891136
 30
0.0
 10
173.018036403
 20
22.5224674576
 30
0.0
 10
171.4416699481
 20
22.645999722
 30
0.0
 10
170.0931516975
 20
22.8153664547
 30
0.0
 10
169.2779255219
 20
22.977723392
 30
0.0
 10
168.9155096812
 20
23.07511387
 30
0.0
  0
SPLINE
  5
2BF
100
AcDbEntity
  8
0
100
AcDbSpline
 62
7
  6
CONTINUOUS
 70
0
 71
3
 72
9
 73
5
 74
0
 42
0.0000001
 43
0.0000001
 44
0.0000000001
 40
0.0
 40
0.0
 40
0.0
 40
0.0
 40
0.4998340479
 40
1.0
 40
1.0
 40
1.0
 40
1.0
 10
209.1661032748
 20
22.129834248
 30
0.0
 10
209.0394443123
 20
22.0384336564
 30
0.0
 10
208.8240097069
 20
21.7955363896
 30
0.0
 10
208.7378788683
 20
21.4829394681
 30
0.0
 10
208.729228762
 20
21.3268813142
 30
0.0
  0
SPLINE
  5
2C0
100
AcDbEntity
  8
0
100
AcDbSpline
 62
7
  6
CONTINUOUS
 70
0
 71
3
 72
13
 73
9
 74
0
 42
0.0000001
 43
0.0000001
 44
0.0000000001
 40
0.0
 40
0.0
 40
0.0
 40
0.0
 40
0.0758872765
 40
0.1685177971
 40
0.276996722
 40
0.400023187
 40
0.6825700843
 40
1.0
 40
1.0
 40
1.0
 40
1.0
 10
168.7924164154
 20
22.1034667642
 30
0.0
 10
169.1496767493
 20
22.0018152883
 30
0.0
 10
169.9589170703
 20
21.8329483901
 30
0.0
 10
171.3037516999
 20
21.6571606407
 30
0.0
 10
172.885595964
 20
21.5289110726
 30
0.0
 10
175.3989292851
 20
21.4062858221
 30
0.0
 10
178.9378021152
 20
21.3445197904
 30
0.0
 10
181.8743730523
 20
21.3341727154
 30
0.0
 10
183.4280734682
 20
21.3313047443
 30
0.0
  0
SPLINE
  5
2C1
100
AcDbEntity
  8
0
100
AcDbSpline
 62
7
  6
CONTINUOUS
 70
0
 71
3
 72
9
 73
5
 74
0
 42
0.0000001
 43
0.0000001
 44
0.0000000001
 40
0.0
 40
0.0
 40
0.0
 40
0.0
 40
0.2497048983
 40
1.0
 40
1.0
 40
1.0
 40
1.0
 10
183.4280734682
 20
21.3284302951
 30
0.0
 10
184.3671293058
 20
21.328026846
 30
0.0
 10
188.1277919674
 20
21.3268676423
 30
0.0
 10
191.8884548369
 20
21.3268555427
 30
0.0
 10
194.7100617215
 20
21.3268555427
 30
0.0
  0
SPLINE
  5
2C2
100
AcDbEntity
  8
0
100
AcDbSpline
 62
7
  6
CONTINUOUS
 70
0
 71
3
 72
8
 73
4
 74
0
 42
0.0000001
 43
0.0000001
 44
0.0000000001
 40
0.0
 40
0.0
 40
0.0
 40
0.0
 40
1.0
 40
1.0
 40
1.0
 40
1.0
 10
208.7305362008
 20
21.3268555427
 30
0.0
 10
208.7285835495
 20
21.2999227182
 30
0.0
 10
208.7278121628
 20
21.2728918488
 30
0.0
 10
208.7278837992
 20
21.2458884277
 30
0.0
  0
SPLINE
  5
2C3
100
AcDbEntity
  8
0
100
AcDbSpline
 62
7
  6
CONTINUOUS
 70
0
 71
3
 72
9
 73
5
 74
0
 42
0.0000001
 43
0.0000001
 44
0.0000000001
 40
0.0
 40
0.0
 40
0.0
 40
0.0
 40
0.2622305662
 40
1.0
 40
1.0
 40
1.0
 40
1.0
 10
168.6450490396
 20
23.1532797228
 30
0.0
 10
168.5517334946
 20
23.2620273019
 30
0.0
 10
168.2070520785
 20
23.6860143525
 30
0.0
 10
167.909153851
 20
24.1493299305
 30
0.0
 10
167.7281291407
 20
24.5095579008
 30
0.0
  0
SPLINE
  5
2C4
100
AcDbEntity
  8
0
100
AcDbSpline
 62
7
  6
CONTINUOUS
 70
0
 71
3
 72
27
 73
23
 74
0
 42
0.0000001
 43
0.0000001
 44
0.0000000001
 40
0.0
 40
0.0
 40
0.0
 40
0.0
 40
0.1250663466
 40
0.2501325328
 40
0.3751985006
 40
0.4377318125
 40
0.5002650862
 40
0.562798303
 40
0.6253314309
 40
0.6878643955
 40
0.7503970244
 40
0.7816636209
 40
0.8129301439
 40
0.8441965331
 40
0.8754626234
 40
0.9067279316
 40
0.9379904515
 40
0.9536225066
 40
0.9692516301
 40
0.9770672932
 40
0.9848802357
 40
1.0
 40
1.0
 40
1.0
 40
1.0
 10
196.7321848639
 20
71.820155894
 30
0.0
 10
196.7384858094
 20
70.5306892978
 30
0.0
 10
196.7655452591
 20
67.9518022549
 30
0.0
 10
196.8513152998
 20
64.084227399
 30
0.0
 10
196.9637918338
 20
60.8623766135
 30
0.0
 10
197.082210016
 20
58.2861117198
 30
0.0
 10
197.1867655668
 20
56.354689186
 30
0.0
 10
197.3090304473
 20
54.4243029836
 30
0.0
 10
197.4517611651
 20
52.4953113171
 30
0.0
 10
197.6189695196
 20
50.5682801693
 30
0.0
 10
197.7837135105
 20
48.9647727155
 30
0.0
 10
197.9359307392
 20
47.6842857777
 30
0.0
 10
198.06240418
 20
46.7254492039
 30
0.0
 10
198.2040663448
 20
45.7687275749
 30
0.0
 10
198.3652360073
 20
44.8150670664
 30
0.0
 10
198.5534464199
 20
43.8663360171
 30
0.0
 10
198.7432545068
 20
43.0827587625
 30
0.0
 10
198.9324579663
 20
42.4658758259
 30
0.0
 10
199.0734458573
 20
42.0890459051
 30
0.0
 10
199.2146662046
 20
41.7963326132
 30
0.0
 10
199.3715548589
 20
41.5316084865
 30
0.0
 10
199.5721828935
 20
41.3268559594
 30
0.0
 10
199.7280734608
 20
41.3268559553
 30
0.0
  0
SPLINE
  5
2C5
100
AcDbEntity
  8
0
100
AcDbSpline
 62
7
  6
CONTINUOUS
 70
0
 71
3
 72
29
 73
25
 74
0
 42
0.0000001
 43
0.0000001
 44
0.0000000001
 40
0.0
 40
0.0
 40
0.0
 40
0.0
 40
0.0047987683
 40
0.0140103142
 40
0.0275849979
 40
0.0454070147
 40
0.0673118972
 40
0.0931145418
 40
0.1554288054
 40
0.2301190315
 40
0.3145057735
 40
0.405556738
 40
0.5000000052
 40
0.5944432726
 40
0.6854942368
 40
0.7698809772
 40
0.8445712008
 40
0.906885462
 40
0.9326881054
 40
0.9545929871
 40
0.9724150031
 40
0.9859896863
 40
0.9952012318
 40
1.0
 40
1.0
 40
1.0
 40
1.0
 10
204.2219514163
 20
94.3649887914
 30
0.0
 10
204.2083060862
 20
94.3695335389
 30
0.0
 10
204.1660771126
 20
94.3737823225
 30
0.0
 10
204.0840643888
 20
94.3813512484
 30
0.0
 10
203.9623458132
 20
94.387679805
 30
0.0
 10
203.8028122698
 20
94.3945412388
 30
0.0
 10
203.6064912993
 20
94.4009378792
 30
0.0
 10
203.2768748558
 20
94.4097168426
 30
0.0
 10
202.7890061595
 20
94.4190697992
 30
0.0
 10
202.1255395972
 20
94.4279091348
 30
0.0
 10
201.3759126983
 20
94.4344775942
 30
0.0
 10
200.5670678144
 20
94.4385331692
 30
0.0
 10
199.7280734208
 20
94.4399018401
 30
0.0
 10
198.889079028
 20
94.4385331689
 30
0.0
 10
198.0802341494
 20
94.4344775936
 30
0.0
 10
197.3306072633
 20
94.4279091339
 30
0.0
 10
196.6671407205
 20
94.4190697982
 30
0.0
 10
196.1792720425
 20
94.4097168418
 30
0.0
 10
195.8496556125
 20
94.4009378784
 30
0.0
 10
195.6533346506
 20
94.3945412382
 30
0.0
 10
195.4938011135
 20
94.3876798045
 30
0.0
 10
195.3720825429
 20
94.3813512481
 30
0.0
 10
195.2900698218
 20
94.3737823225
 30
0.0
 10
195.2478408496
 20
94.3695335387
 30
0.0
 10
195.2341955199
 20
94.3649887913
 30
0.0
  0
SPLINE
  5
2C6
100
AcDbEntity
  8
0
100
AcDbSpline
 62
7
  6
CONTINUOUS
 70
0
 71
3
 72
27
 73
23
 74
0
 42
0.0000001
 43
0.0000001
 44
0.0000000001
 40
0.0
 40
0.0
 40
0.0
 40
0.0
 40
0.1250663466
 40
0.250132533
 40
0.3751985009
 40
0.4377318128
 40
0.5002650866
 40
0.5627983035
 40
0.6253314315
 40
0.6878643961
 40
0.7503970252
 40
0.7816636218
 40
0.8129301448
 40
0.844196534
 40
0.8754626245
 40
0.906727933
 40
0.9379904535
 40
0.9536225092
 40
0.9692516337
 40
0.9770672994
 40
0.9848802441
 40
1.0
 40
1.0
 40
1.0
 40
1.0
 10
202.7239620737
 20
71.8201561464
 30
0.0
 10
202.7176611286
 20
70.5306895384
 30
0.0
 10
202.6906016761
 20
67.9518024705
 30
0.0
 10
202.6048316483
 20
64.0842275761
 30
0.0
 10
202.4923551104
 20
60.8623767583
 30
0.0
 10
202.3739369367
 20
58.2861118377
 30
0.0
 10
202.2693813591
 20
56.3546892851
 30
0.0
 10
202.1471165124
 20
54.4243030599
 30
0.0
 10
202.0043857579
 20
52.4953113755
 30
0.0
 10
201.8371774151
 20
50.5682802062
 30
0.0
 10
201.6724334129
 20
48.964772736
 30
0.0
 10
201.5202162193
 20
47.6842857795
 30
0.0
 10
201.393742732
 20
46.7254492013
 30
0.0
 10
201.2520805903
 20
45.7687275576
 30
0.0
 10
201.0909108977
 20
44.8150670403
 30
0.0
 10
200.9027005395
 20
43.8663359592
 30
0.0
 10
200.7128924115
 20
43.0827586941
 30
0.0
 10
200.5236889862
 20
42.4658757129
 30
0.0
 10
200.3827009664
 20
42.0890457957
 30
0.0
 10
200.2414806722
 20
41.7963324078
 30
0.0
 10
200.0845919489
 20
41.5316083551
 30
0.0
 10
199.8839639434
 20
41.3268559512
 30
0.0
 10
199.7280734608
 20
41.3268559553
 30
0.0
  0
ELLIPSE
  5
2C7
100
AcDbEntity
  8
0
100
AcDbEllipse
 62
7
  6
CONTINUOUS
 10
187.4832740024
 20
25.7855290628
 30
0.0
 11
20.2903489218
 21
0.0
 31
0.0
 40
0.4663076582
 41
-2.9114131221
 42
-2.7418722702
  0
ELLIPSE
  5
2C8
100
AcDbEntity
  8
0
100
AcDbEllipse
 62
7
  6
CONTINUOUS
 10
199.7280734682
 20
94.3609486487
 30
0.0
 11
3.0
 21
0.0
 31
0.0
 40
0.0175601411
 41
0.0523598776
 42
3.089232776
  0
ENDSEC
  0
SECTION
  2
OBJECTS
  0
DICTIONARY
  5
C
100
AcDbDictionary
280
0
281
1
  3
ACAD_GROUP
350
D
  3
ACAD_MLINESTYLE
350
17
  3
ACAD_LAYOUT
350
1A
  3
ACAD_PLOTSETTINGS
350
19
  3
ACAD_PLOTSTYLENAME
350
E
  0
DICTIONARY
  5
D
102
{ACAD_REACTORS
330
C
102
}
100
AcDbDictionary
280
0
281
1
  0
ACDBDICTIONARYWDFLT
  5
E
102
{ACAD_REACTORS
330
C
102
}
100
AcDbDictionary
281
1
  3
Normal
350
F
100
AcDbDictionaryWithDefault
340
F
  0
DICTIONARY
  5
17
102
{ACAD_REACTORS
330
C
102
}
100
AcDbDictionary
280
0
281
1
  3
Standard
350
18
  0
DICTIONARY
  5
19
102
{ACAD_REACTORS
330
C
102
}
100
AcDbDictionary
281
1
  0
DICTIONARY
  5
1A
102
{ACAD_REACTORS
330
C
102
}
100
AcDbDictionary
281
1
  3
Model
350
2C9
  3
Layout1
350
2CA
  0
ACDBPLACEHOLDER
  5
F
102
{ACAD_REACTORS
330
E
102
}
  0
MLINESTYLE
  5
18
102
{ACAD_REACTORS
330
17
102
}
100
AcDbMlineStyle
  2
STANDARD
 70
0
  3

 62
256
 51
90.0
 52
90.0
 71
2
 49
0.5
 62
256
  6
BYLAYER
 49
-0.5
 62
256
  6
BYLAYER
  0
LAYOUT
  5
2C9
102
{ACAD_REACTORS
330
1A
102
}
100
AcDbPlotSettings
  1

  2
none_device
  4
ANSI_C_(22.00_x_17.00_Inches)
  6

 40
0.0
 41
0.0
 42
0.0
 43
0.0
 44
558.8
 45
431.8
 46
0.0
 47
0.0
 48
0.0
 49
0.0
140
0.0
141
0.0
142
1.0
143
1.0
 70
1024
 72
1
 73
0
 74
0
  7

 75
0
147
1.0
148
0.0
149
0.0
100
AcDbLayout
  1
Model
 70
0
 71
0
 10
0.0
 20
0.0
 11
558.8
 21
431.8
 12
0.0
 22
0.0
 32
0.0
 14
0.0
 24
0.0
 34
0.0
 15
0.0
 25
0.0
 35
0.0
146
0.0
 13
0.0
 23
0.0
 33
0.0
 16
1.0
 26
0.0
 36
0.0
 17
0.0
 27
1.0
 37
0.0
 76
0
330
216
345
0
346
0
  0
LAYOUT
  5
2CA
102
{ACAD_REACTORS
330
1A
102
}
100
AcDbPlotSettings
  1

  2
none_device
  4
ANSI_C_(22.00_x_17.00_Inches)
  6

 40
0.0
 41
0.0
 42
0.0
 43
0.0
 44
558.8
 45
431.8
 46
0.0
 47
0.0
 48
0.0
 49
0.0
140
0.0
141
0.0
142
1.0
143
1.0
 70
0
 72
1
 73
0
 74
0
  7

 75
0
147
1.0
148
0.0
149
0.0
100
AcDbLayout
  1
Layout1
 70
0
 71
1
 10
0.0
 20
0.0
 11
558.8
 21
431.8
 12
0.0
 22
0.0
 32
0.0
 14
0.0
 24
0.0
 34
0.0
 15
0.0
 25
0.0
 35
0.0
146
0.0
 13
0.0
 23
0.0
 33
0.0
 16
1.0
 26
0.0
 36
0.0
 17
0.0
 27
1.0
 37
0.0
 76
0
330
217
345
0
346
0
  0
ENDSEC
  0
EOF
